  0
SECTION
  2
HEADER
  9
$ACADVER
  1
AC1009
  9
$DWGCODEPAGE
  3
ansi_1252
  9
$INSBASE
 10
0.0
 20
0.0
 30
0.0
  9
$EXTMIN
 10
-18.69255347086458
 20
-18.75
 30
0.0
  9
$EXTMAX
 10
18.69255347086458
 20
18.75
 30
0.0
  9
$LIMMIN
 10
0.0
 20
0.0
  9
$LIMMAX
 10
12.0
 20
9.0
  9
$ORTHOMODE
 70
     0
  9
$REGENMODE
 70
     1
  9
$FILLMODE
 70
     1
  9
$QTEXTMODE
 70
     0
  9
$MIRRTEXT
 70
     1
  9
$DRAGMODE
 70
     2
  9
$LTSCALE
 40
1.0
  9
$OSMODE
 70
    37
  9
$ATTMODE
 70
     1
  9
$TEXTSIZE
 40
0.2
  9
$TRACEWID
 40
0.05
  9
$TEXTSTYLE
  7
STANDARD
  9
$CLAYER
  8
0
  9
$CELTYPE
  6
BYLAYER
  9
$CECOLOR
 62
   256
  9
$DIMSCALE
 40
1.0
  9
$DIMASZ
 40
0.18
  9
$DIMEXO
 40
0.0625
  9
$DIMDLI
 40
0.38
  9
$DIMRND
 40
0.0
  9
$DIMDLE
 40
0.0
  9
$DIMEXE
 40
0.18
  9
$DIMTP
 40
0.0
  9
$DIMTM
 40
0.0
  9
$DIMTXT
 40
0.18
  9
$DIMCEN
 40
0.09
  9
$DIMTSZ
 40
0.0
  9
$DIMTOL
 70
     0
  9
$DIMLIM
 70
     0
  9
$DIMTIH
 70
     1
  9
$DIMTOH
 70
     1
  9
$DIMSE1
 70
     0
  9
$DIMSE2
 70
     0
  9
$DIMTAD
 70
     0
  9
$DIMZIN
 70
     0
  9
$DIMBLK
  1

  9
$DIMASO
 70
     1
  9
$DIMSHO
 70
     1
  9
$DIMPOST
  1

  9
$DIMAPOST
  1

  9
$DIMALT
 70
     0
  9
$DIMALTD
 70
     2
  9
$DIMALTF
 40
25.4
  9
$DIMLFAC
 40
1.0
  9
$DIMTOFL
 70
     0
  9
$DIMTVP
 40
0.0
  9
$DIMTIX
 70
     0
  9
$DIMSOXD
 70
     0
  9
$DIMSAH
 70
     0
  9
$DIMBLK1
  1

  9
$DIMBLK2
  1

  9
$DIMSTYLE
  2
STANDARD
  9
$DIMCLRD
 70
     0
  9
$DIMCLRE
 70
     0
  9
$DIMCLRT
 70
     0
  9
$DIMTFAC
 40
1.0
  9
$DIMGAP
 40
0.09
  9
$LUNITS
 70
     2
  9
$LUPREC
 70
     4
  9
$SKETCHINC
 40
0.1
  9
$FILLETRAD
 40
0.5
  9
$AUNITS
 70
     0
  9
$AUPREC
 70
     0
  9
$MENU
  1
.
  9
$ELEVATION
 40
0.0
  9
$PELEVATION
 40
0.0
  9
$THICKNESS
 40
0.0
  9
$LIMCHECK
 70
     0
  9
$CHAMFERA
 40
0.5
  9
$CHAMFERB
 40
0.5
  9
$SKPOLY
 70
     0
  9
$TDCREATE
 40
2454910.5
  9
$TDUPDATE
 40
2456711.912652905
  9
$TDINDWG
 40
0.0000000116
  9
$TDUSRTIMER
 40
0.0000000116
  9
$USRTIMER
 70
     1
  9
$ANGBASE
 50
0.0
  9
$ANGDIR
 70
     0
  9
$PDMODE
 70
     0
  9
$PDSIZE
 40
0.0
  9
$PLINEWID
 40
0.0
  9
$COORDS
 70
     1
  9
$SPLFRAME
 70
     0
  9
$SPLINETYPE
 70
     6
  9
$SPLINESEGS
 70
     8
  9
$ATTDIA
 70
     0
  9
$ATTREQ
 70
     1
  9
$HANDLING
 70
     1
  9
$HANDSEED
  5
9A0
  9
$SURFTAB1
 70
     6
  9
$SURFTAB2
 70
     6
  9
$SURFTYPE
 70
     6
  9
$SURFU
 70
     6
  9
$SURFV
 70
     6
  9
$UCSNAME
  2

  9
$UCSORG
 10
0.0
 20
0.0
 30
0.0
  9
$UCSXDIR
 10
1.0
 20
0.0
 30
0.0
  9
$UCSYDIR
 10
0.0
 20
1.0
 30
0.0
  9
$PUCSNAME
  2

  9
$PUCSORG
 10
0.0
 20
0.0
 30
0.0
  9
$PUCSXDIR
 10
1.0
 20
0.0
 30
0.0
  9
$PUCSYDIR
 10
0.0
 20
1.0
 30
0.0
  9
$USERI1
 70
     0
  9
$USERI2
 70
     0
  9
$USERI3
 70
     0
  9
$USERI4
 70
     0
  9
$USERI5
 70
     0
  9
$USERR1
 40
0.0
  9
$USERR2
 40
0.0
  9
$USERR3
 40
0.0
  9
$USERR4
 40
0.0
  9
$USERR5
 40
0.0
  9
$WORLDVIEW
 70
     1
  9
$SHADEDGE
 70
     3
  9
$SHADEDIF
 70
    70
  9
$TILEMODE
 70
     1
  9
$MAXACTVP
 70
    64
  9
$PLIMCHECK
 70
     0
  9
$PEXTMIN
 10
1.000000000000000E+20
 20
1.000000000000000E+20
 30
1.000000000000000E+20
  9
$PEXTMAX
 10
-1.000000000000000E+20
 20
-1.000000000000000E+20
 30
-1.000000000000000E+20
  9
$PLIMMIN
 10
0.0
 20
0.0
  9
$PLIMMAX
 10
12.0
 20
9.0
  9
$UNITMODE
 70
     0
  9
$VISRETAIN
 70
     1
  9
$PLINEGEN
 70
     0
  9
$PSLTSCALE
 70
     1
  0
ENDSEC
  0
SECTION
  2
TABLES
  0
TABLE
  2
VPORT
 70
     1
  0
VPORT
  2
*ACTIVE
 70
     0
 10
0.0
 20
0.0
 11
1.0
 21
1.0
 12
10.42990654205607
 22
4.5
 13
0.0
 23
0.0
 14
0.5
 24
0.5
 15
0.5
 25
0.5
 16
0.0
 26
0.0
 36
1.0
 17
0.0
 27
0.0
 37
0.0
 40
9.0
 41
1.972972972850329
 42
50.0
 43
0.0
 44
0.0
 50
0.0
 51
0.0
 71
     0
 72
   100
 73
     1
 74
     3
 75
     0
 76
     0
 77
     0
 78
     0
  0
ENDTAB
  0
TABLE
  2
LTYPE
 70
     2
  0
LTYPE
  2
CONTINUOUS
 70
     0
  3
Solid line
 72
    65
 73
     0
 40
0.0
  0
LTYPE
  2
CONTINUOUS2
 70
     0
  3
Solid Line
 72
    65
 73
     0
 40
0.0
  0
ENDTAB
  0
TABLE
  2
LAYER
 70
     2
  0
LAYER
  2
0
 70
     0
 62
     7
  6
CONTINUOUS
  0
LAYER
  2
STANDARD
 70
     0
 62
    18
  6
CONTINUOUS
  0
ENDTAB
  0
TABLE
  2
STYLE
 70
     1
  0
STYLE
  2
STANDARD
 70
     0
 40
0.0
 41
1.0
 50
0.0
 71
     0
 42
0.2
  3
txt
  4

  0
ENDTAB
  0
TABLE
  2
VIEW
 70
     0
  0
ENDTAB
  0
TABLE
  2
UCS
 70
     0
  0
ENDTAB
  0
TABLE
  2
APPID
 70
     1
  0
APPID
  2
ACAD
 70
     0
  0
ENDTAB
  0
TABLE
  2
DIMSTYLE
 70
     1
  0
DIMSTYLE
  2
STANDARD
 70
     0
  3

  4

  5

  6

  7

 40
1.0
 41
0.18
 42
0.0625
 43
0.38
 44
0.18
 45
0.0
 46
0.0
 47
0.0
 48
0.0
140
0.18
141
0.09
142
0.0
143
25.4
144
1.0
145
0.0
146
1.0
147
0.09
 71
     0
 72
     0
 73
     1
 74
     1
 75
     0
 76
     0
 77
     0
 78
     0
170
     0
171
     2
172
     0
173
     0
174
     0
175
     0
176
     0
177
     0
178
     0
  0
ENDTAB
  0
ENDSEC
  0
SECTION
  2
BLOCKS
  0
BLOCK
  8
0
  2
$MODEL_SPACE
 70
     0
 10
0.0
 20
0.0
 30
0.0
  3
$MODEL_SPACE
  1

  0
ENDBLK
  5
21
  8
0
  0
BLOCK
 67
     1
  8
0
  2
$PAPER_SPACE
 70
     0
 10
0.0
 20
0.0
 30
0.0
  3
$PAPER_SPACE
  1

  0
ENDBLK
  5
1D
 67
     1
  8
0
  0
ENDSEC
  0
SECTION
  2
ENTITIES
  0
POLYLINE
  5
41
  8
STANDARD
 66
     1
 10
0.0
 20
0.0
 30
0.0
 70
     1
  0
VERTEX
  5
7A
  8
STANDARD
 10
0.0
 20
18.75
 30
0.0
  0
VERTEX
  5
7B
  8
STANDARD
 10
-0.4824632104168408
 20
18.74387611039052
 30
0.0
  0
VERTEX
  5
7C
  8
STANDARD
 10
-0.961916322292976
 20
18.7256026163488
 30
0.0
  0
VERTEX
  5
7D
  8
STANDARD
 10
-1.438212524632396
 20
18.6953267800549
 30
0.0
  0
VERTEX
  5
7E
  8
STANDARD
 10
-1.91120500643909
 20
18.6531958636889
 30
0.0
  0
VERTEX
  5
7F
  8
STANDARD
 10
-2.380746956717049
 20
18.59935712943086
 30
0.0
  0
VERTEX
  5
80
  8
STANDARD
 10
-2.846691564470264
 20
18.53395783946086
 30
0.0
  0
VERTEX
  5
81
  8
STANDARD
 10
-3.308892018702724
 20
18.45714525595896
 30
0.0
  0
VERTEX
  5
82
  8
STANDARD
 10
-3.76720150841842
 20
18.36906664110523
 30
0.0
  0
VERTEX
  5
83
  8
STANDARD
 10
-4.221473222621342
 20
18.26986925707974
 30
0.0
  0
VERTEX
  5
84
  8
STANDARD
 10
-4.67156035031548
 20
18.15970036606256
 30
0.0
  0
VERTEX
  5
85
  8
STANDARD
 10
-5.117316080504825
 20
18.03870723023376
 30
0.0
  0
VERTEX
  5
86
  8
STANDARD
 10
-5.558593602193366
 20
17.90703711177342
 30
0.0
  0
VERTEX
  5
87
  8
STANDARD
 10
-5.995246104385094
 20
17.76483727286159
 30
0.0
  0
VERTEX
  5
88
  8
STANDARD
 10
-6.427126776084
 20
17.61225497567835
 30
0.0
  0
VERTEX
  5
89
  8
STANDARD
 10
-6.854088806294073
 20
17.44943748240377
 30
0.0
  0
VERTEX
  5
8A
  8
STANDARD
 10
-7.275985384019305
 20
17.27653205521792
 30
0.0
  0
VERTEX
  5
8B
  8
STANDARD
 10
-7.692669698263684
 20
17.09368595630086
 30
0.0
  0
VERTEX
  5
8C
  8
STANDARD
 10
-8.103994938031201
 20
16.90104644783267
 30
0.0
  0
VERTEX
  5
8D
  8
STANDARD
 10
-8.509814292325846
 20
16.69876079199341
 30
0.0
  0
VERTEX
  5
8E
  8
STANDARD
 10
-8.90998095015161
 20
16.48697625096316
 30
0.0
  0
VERTEX
  5
8F
  8
STANDARD
 10
-9.304348100512485
 20
16.26584008692198
 30
0.0
  0
VERTEX
  5
90
  8
STANDARD
 10
-9.692768932412456
 20
16.03549956204995
 30
0.0
  0
VERTEX
  5
91
  8
STANDARD
 10
-10.07509663485552
 20
15.79610193852713
 30
0.0
  0
VERTEX
  5
92
  8
STANDARD
 10
-10.45118439684566
 20
15.54779447853359
 30
0.0
  0
VERTEX
  5
93
  8
STANDARD
 10
-10.82088540738687
 20
15.2907244442494
 30
0.0
  0
VERTEX
  5
94
  8
STANDARD
 10
-11.18405285548314
 20
15.02503909785464
 30
0.0
  0
VERTEX
  5
95
  8
STANDARD
 10
-11.54053993013846
 20
14.75088570152936
 30
0.0
  0
VERTEX
  5
96
  8
STANDARD
 10
-11.89019982035682
 20
14.46841151745365
 30
0.0
  0
VERTEX
  5
97
  8
STANDARD
 10
-12.23288571514222
 20
14.17776380780756
 30
0.0
  0
VERTEX
  5
98
  8
STANDARD
 10
-12.56845080349863
 20
13.87908983477117
 30
0.0
  0
VERTEX
  5
99
  8
STANDARD
 10
-12.89674827443005
 20
13.57253686052455
 30
0.0
  0
VERTEX
  5
9A
  8
STANDARD
 10
-13.21763131694048
 20
13.25825214724777
 30
0.0
  0
VERTEX
  5
9B
  8
STANDARD
 10
-13.5309531200339
 20
12.93638295712089
 30
0.0
  0
VERTEX
  5
9C
  8
STANDARD
 10
-13.8365668727143
 20
12.607076552324
 30
0.0
  0
VERTEX
  5
9D
  8
STANDARD
 10
-14.13432576398568
 20
12.27048019503714
 30
0.0
  0
VERTEX
  5
9E
  8
STANDARD
 10
-14.42408298285201
 20
11.9267411474404
 30
0.0
  0
VERTEX
  5
9F
  8
STANDARD
 10
-14.7056917183173
 20
11.57600667171385
 30
0.0
  0
VERTEX
  5
A0
  8
STANDARD
 10
-14.97900515938553
 20
11.21842403003755
 30
0.0
  0
VERTEX
  5
A1
  8
STANDARD
 10
-15.2438764950607
 20
10.85414048459157
 30
0.0
  0
VERTEX
  5
A2
  8
STANDARD
 10
-15.50015891434678
 20
10.48330329755598
 30
0.0
  0
VERTEX
  5
A3
  8
STANDARD
 10
-15.74770560624778
 20
10.10605973111086
 30
0.0
  0
VERTEX
  5
A4
  8
STANDARD
 10
-15.98636975976769
 20
9.722557047436261
 30
0.0
  0
VERTEX
  5
A5
  8
STANDARD
 10
-16.21600456391049
 20
9.332942508712268
 30
0.0
  0
VERTEX
  5
A6
  8
STANDARD
 10
-16.43646320768017
 20
8.937363377118945
 30
0.0
  0
VERTEX
  5
A7
  8
STANDARD
 10
-16.64759888008073
 20
8.535966914836361
 30
0.0
  0
VERTEX
  5
A8
  8
STANDARD
 10
-16.84926477011616
 20
8.128900384044586
 30
0.0
  0
VERTEX
  5
A9
  8
STANDARD
 10
-17.04131406679043
 20
7.716311046923689
 30
0.0
  0
VERTEX
  5
AA
  8
STANDARD
 10
-17.22359995910756
 20
7.298346165653739
 30
0.0
  0
VERTEX
  5
AB
  8
STANDARD
 10
-17.39597563607152
 20
6.875153002414806
 30
0.0
  0
VERTEX
  5
AC
  8
STANDARD
 10
-17.55829428668631
 20
6.44687881938696
 30
0.0
  0
VERTEX
  5
AD
  8
STANDARD
 10
-17.71040909995591
 20
6.013670878750268
 30
0.0
  0
VERTEX
  5
AE
  8
STANDARD
 10
-17.85217326488432
 20
5.575676442684802
 30
0.0
  0
VERTEX
  5
AF
  8
STANDARD
 10
-17.98343997047553
 20
5.133042773370629
 30
0.0
  0
VERTEX
  5
B0
  8
STANDARD
 10
-18.10406240573352
 20
4.685917132987822
 30
0.0
  0
VERTEX
  5
B1
  8
STANDARD
 10
-18.21389375966229
 20
4.234446783716446
 30
0.0
  0
VERTEX
  5
B2
  8
STANDARD
 10
-18.31278722126583
 20
3.778778987736573
 30
0.0
  0
VERTEX
  5
B3
  8
STANDARD
 10
-18.40059597954812
 20
3.319061007228272
 30
0.0
  0
VERTEX
  5
B4
  8
STANDARD
 10
-18.47717322351316
 20
2.855440104371612
 30
0.0
  0
VERTEX
  5
B5
  8
STANDARD
 10
-18.54237214216494
 20
2.388063541346662
 30
0.0
  0
VERTEX
  5
B6
  8
STANDARD
 10
-18.59604592450745
 20
1.917078580333493
 30
0.0
  0
VERTEX
  5
B7
  8
STANDARD
 10
-18.63804775954468
 20
1.442632483512173
 30
0.0
  0
VERTEX
  5
B8
  8
STANDARD
 10
-18.66823083628062
 20
0.9648725130627711
 30
0.0
  0
VERTEX
  5
B9
  8
STANDARD
 10
-18.68644834371926
 20
0.4839459311653577
 30
0.0
  0
VERTEX
  5
BA
  8
STANDARD
 10
-18.69255347086458
 20
0.0000000000000018
 30
0.0
  0
VERTEX
  5
BB
  8
STANDARD
 10
-18.68644834371926
 20
-0.4839459311653541
 30
0.0
  0
VERTEX
  5
BC
  8
STANDARD
 10
-18.66823083628062
 20
-0.9648725130627673
 30
0.0
  0
VERTEX
  5
BD
  8
STANDARD
 10
-18.63804775954468
 20
-1.442632483512169
 30
0.0
  0
VERTEX
  5
BE
  8
STANDARD
 10
-18.59604592450745
 20
-1.917078580333489
 30
0.0
  0
VERTEX
  5
BF
  8
STANDARD
 10
-18.54237214216494
 20
-2.388063541346658
 30
0.0
  0
VERTEX
  5
C0
  8
STANDARD
 10
-18.47717322351316
 20
-2.855440104371607
 30
0.0
  0
VERTEX
  5
C1
  8
STANDARD
 10
-18.40059597954812
 20
-3.319061007228267
 30
0.0
  0
VERTEX
  5
C2
  8
STANDARD
 10
-18.31278722126583
 20
-3.778778987736569
 30
0.0
  0
VERTEX
  5
C3
  8
STANDARD
 10
-18.21389375966229
 20
-4.234446783716442
 30
0.0
  0
VERTEX
  5
C4
  8
STANDARD
 10
-18.10406240573352
 20
-4.685917132987817
 30
0.0
  0
VERTEX
  5
C5
  8
STANDARD
 10
-17.98343997047553
 20
-5.133042773370626
 30
0.0
  0
VERTEX
  5
C6
  8
STANDARD
 10
-17.85217326488432
 20
-5.575676442684797
 30
0.0
  0
VERTEX
  5
C7
  8
STANDARD
 10
-17.71040909995591
 20
-6.013670878750263
 30
0.0
  0
VERTEX
  5
C8
  8
STANDARD
 10
-17.55829428668631
 20
-6.446878819386955
 30
0.0
  0
VERTEX
  5
C9
  8
STANDARD
 10
-17.39597563607152
 20
-6.875153002414802
 30
0.0
  0
VERTEX
  5
CA
  8
STANDARD
 10
-17.22359995910756
 20
-7.298346165653735
 30
0.0
  0
VERTEX
  5
CB
  8
STANDARD
 10
-17.04131406679043
 20
-7.716311046923684
 30
0.0
  0
VERTEX
  5
CC
  8
STANDARD
 10
-16.84926477011616
 20
-8.12890038404458
 30
0.0
  0
VERTEX
  5
CD
  8
STANDARD
 10
-16.64759888008073
 20
-8.535966914836358
 30
0.0
  0
VERTEX
  5
CE
  8
STANDARD
 10
-16.43646320768017
 20
-8.937363377118942
 30
0.0
  0
VERTEX
  5
CF
  8
STANDARD
 10
-16.21600456391049
 20
-9.332942508712264
 30
0.0
  0
VERTEX
  5
D0
  8
STANDARD
 10
-15.98636975976769
 20
-9.722557047436258
 30
0.0
  0
VERTEX
  5
D1
  8
STANDARD
 10
-15.74770560624778
 20
-10.10605973111085
 30
0.0
  0
VERTEX
  5
D2
  8
STANDARD
 10
-15.50015891434678
 20
-10.48330329755598
 30
0.0
  0
VERTEX
  5
D3
  8
STANDARD
 10
-15.2438764950607
 20
-10.85414048459156
 30
0.0
  0
VERTEX
  5
D4
  8
STANDARD
 10
-14.97900515938553
 20
-11.21842403003754
 30
0.0
  0
VERTEX
  5
D5
  8
STANDARD
 10
-14.7056917183173
 20
-11.57600667171385
 30
0.0
  0
VERTEX
  5
D6
  8
STANDARD
 10
-14.42408298285201
 20
-11.9267411474404
 30
0.0
  0
VERTEX
  5
D7
  8
STANDARD
 10
-14.13432576398568
 20
-12.27048019503714
 30
0.0
  0
VERTEX
  5
D8
  8
STANDARD
 10
-13.8365668727143
 20
-12.60707655232399
 30
0.0
  0
VERTEX
  5
D9
  8
STANDARD
 10
-13.5309531200339
 20
-12.93638295712089
 30
0.0
  0
VERTEX
  5
DA
  8
STANDARD
 10
-13.21763131694048
 20
-13.25825214724777
 30
0.0
  0
VERTEX
  5
DB
  8
STANDARD
 10
-12.89674827443005
 20
-13.57253686052455
 30
0.0
  0
VERTEX
  5
DC
  8
STANDARD
 10
-12.56845080349863
 20
-13.87908983477117
 30
0.0
  0
VERTEX
  5
DD
  8
STANDARD
 10
-12.23288571514222
 20
-14.17776380780755
 30
0.0
  0
VERTEX
  5
DE
  8
STANDARD
 10
-11.89019982035682
 20
-14.46841151745364
 30
0.0
  0
VERTEX
  5
DF
  8
STANDARD
 10
-11.54053993013846
 20
-14.75088570152936
 30
0.0
  0
VERTEX
  5
E0
  8
STANDARD
 10
-11.18405285548314
 20
-15.02503909785463
 30
0.0
  0
VERTEX
  5
E1
  8
STANDARD
 10
-10.82088540738687
 20
-15.2907244442494
 30
0.0
  0
VERTEX
  5
E2
  8
STANDARD
 10
-10.45118439684566
 20
-15.54779447853359
 30
0.0
  0
VERTEX
  5
E3
  8
STANDARD
 10
-10.07509663485552
 20
-15.79610193852712
 30
0.0
  0
VERTEX
  5
E4
  8
STANDARD
 10
-9.692768932412456
 20
-16.03549956204994
 30
0.0
  0
VERTEX
  5
E5
  8
STANDARD
 10
-9.304348100512485
 20
-16.26584008692198
 30
0.0
  0
VERTEX
  5
E6
  8
STANDARD
 10
-8.90998095015161
 20
-16.48697625096316
 30
0.0
  0
VERTEX
  5
E7
  8
STANDARD
 10
-8.509814292325846
 20
-16.69876079199341
 30
0.0
  0
VERTEX
  5
E8
  8
STANDARD
 10
-8.103994938031201
 20
-16.90104644783266
 30
0.0
  0
VERTEX
  5
E9
  8
STANDARD
 10
-7.692669698263684
 20
-17.09368595630086
 30
0.0
  0
VERTEX
  5
EA
  8
STANDARD
 10
-7.275985384019305
 20
-17.27653205521791
 30
0.0
  0
VERTEX
  5
EB
  8
STANDARD
 10
-6.854088806294073
 20
-17.44943748240377
 30
0.0
  0
VERTEX
  5
EC
  8
STANDARD
 10
-6.427126776084
 20
-17.61225497567835
 30
0.0
  0
VERTEX
  5
ED
  8
STANDARD
 10
-5.995246104385094
 20
-17.76483727286159
 30
0.0
  0
VERTEX
  5
EE
  8
STANDARD
 10
-5.558593602193366
 20
-17.90703711177342
 30
0.0
  0
VERTEX
  5
EF
  8
STANDARD
 10
-5.117316080504825
 20
-18.03870723023376
 30
0.0
  0
VERTEX
  5
F0
  8
STANDARD
 10
-4.67156035031548
 20
-18.15970036606256
 30
0.0
  0
VERTEX
  5
F1
  8
STANDARD
 10
-4.221473222621342
 20
-18.26986925707974
 30
0.0
  0
VERTEX
  5
F2
  8
STANDARD
 10
-3.76720150841842
 20
-18.36906664110523
 30
0.0
  0
VERTEX
  5
F3
  8
STANDARD
 10
-3.308892018702724
 20
-18.45714525595896
 30
0.0
  0
VERTEX
  5
F4
  8
STANDARD
 10
-2.846691564470264
 20
-18.53395783946086
 30
0.0
  0
VERTEX
  5
F5
  8
STANDARD
 10
-2.380746956717049
 20
-18.59935712943086
 30
0.0
  0
VERTEX
  5
F6
  8
STANDARD
 10
-1.91120500643909
 20
-18.6531958636889
 30
0.0
  0
VERTEX
  5
F7
  8
STANDARD
 10
-1.438212524632396
 20
-18.6953267800549
 30
0.0
  0
VERTEX
  5
F8
  8
STANDARD
 10
-0.961916322292976
 20
-18.7256026163488
 30
0.0
  0
VERTEX
  5
F9
  8
STANDARD
 10
-0.4824632104168408
 20
-18.74387611039052
 30
0.0
  0
VERTEX
  5
FA
  8
STANDARD
 10
0.0
 20
-18.75
 30
0.0
  0
VERTEX
  5
FB
  8
STANDARD
 10
0.4824632104168406
 20
-18.74387611039052
 30
0.0
  0
VERTEX
  5
FC
  8
STANDARD
 10
0.9619163222929756
 20
-18.7256026163488
 30
0.0
  0
VERTEX
  5
FD
  8
STANDARD
 10
1.438212524632395
 20
-18.6953267800549
 30
0.0
  0
VERTEX
  5
FE
  8
STANDARD
 10
1.91120500643909
 20
-18.6531958636889
 30
0.0
  0
VERTEX
  5
FF
  8
STANDARD
 10
2.380746956717049
 20
-18.59935712943086
 30
0.0
  0
VERTEX
  5
100
  8
STANDARD
 10
2.846691564470264
 20
-18.53395783946086
 30
0.0
  0
VERTEX
  5
101
  8
STANDARD
 10
3.308892018702724
 20
-18.45714525595896
 30
0.0
  0
VERTEX
  5
102
  8
STANDARD
 10
3.76720150841842
 20
-18.36906664110523
 30
0.0
  0
VERTEX
  5
103
  8
STANDARD
 10
4.221473222621342
 20
-18.26986925707974
 30
0.0
  0
VERTEX
  5
104
  8
STANDARD
 10
4.67156035031548
 20
-18.15970036606256
 30
0.0
  0
VERTEX
  5
105
  8
STANDARD
 10
5.117316080504825
 20
-18.03870723023376
 30
0.0
  0
VERTEX
  5
106
  8
STANDARD
 10
5.558593602193366
 20
-17.90703711177342
 30
0.0
  0
VERTEX
  5
107
  8
STANDARD
 10
5.995246104385094
 20
-17.76483727286159
 30
0.0
  0
VERTEX
  5
108
  8
STANDARD
 10
6.427126776084
 20
-17.61225497567835
 30
0.0
  0
VERTEX
  5
109
  8
STANDARD
 10
6.854088806294073
 20
-17.44943748240377
 30
0.0
  0
VERTEX
  5
10A
  8
STANDARD
 10
7.275985384019304
 20
-17.27653205521791
 30
0.0
  0
VERTEX
  5
10B
  8
STANDARD
 10
7.692669698263683
 20
-17.09368595630086
 30
0.0
  0
VERTEX
  5
10C
  8
STANDARD
 10
8.1039949380312
 20
-16.90104644783266
 30
0.0
  0
VERTEX
  5
10D
  8
STANDARD
 10
8.509814292325846
 20
-16.69876079199341
 30
0.0
  0
VERTEX
  5
10E
  8
STANDARD
 10
8.90998095015161
 20
-16.48697625096316
 30
0.0
  0
VERTEX
  5
10F
  8
STANDARD
 10
9.304348100512481
 20
-16.26584008692198
 30
0.0
  0
VERTEX
  5
110
  8
STANDARD
 10
9.692768932412452
 20
-16.03549956204994
 30
0.0
  0
VERTEX
  5
111
  8
STANDARD
 10
10.07509663485552
 20
-15.79610193852712
 30
0.0
  0
VERTEX
  5
112
  8
STANDARD
 10
10.45118439684566
 20
-15.54779447853359
 30
0.0
  0
VERTEX
  5
113
  8
STANDARD
 10
10.82088540738687
 20
-15.2907244442494
 30
0.0
  0
VERTEX
  5
114
  8
STANDARD
 10
11.18405285548314
 20
-15.02503909785463
 30
0.0
  0
VERTEX
  5
115
  8
STANDARD
 10
11.54053993013846
 20
-14.75088570152936
 30
0.0
  0
VERTEX
  5
116
  8
STANDARD
 10
11.89019982035682
 20
-14.46841151745364
 30
0.0
  0
VERTEX
  5
117
  8
STANDARD
 10
12.23288571514222
 20
-14.17776380780755
 30
0.0
  0
VERTEX
  5
118
  8
STANDARD
 10
12.56845080349863
 20
-13.87908983477117
 30
0.0
  0
VERTEX
  5
119
  8
STANDARD
 10
12.89674827443005
 20
-13.57253686052455
 30
0.0
  0
VERTEX
  5
11A
  8
STANDARD
 10
13.21763131694048
 20
-13.25825214724777
 30
0.0
  0
VERTEX
  5
11B
  8
STANDARD
 10
13.5309531200339
 20
-12.93638295712089
 30
0.0
  0
VERTEX
  5
11C
  8
STANDARD
 10
13.8365668727143
 20
-12.60707655232399
 30
0.0
  0
VERTEX
  5
11D
  8
STANDARD
 10
14.13432576398568
 20
-12.27048019503714
 30
0.0
  0
VERTEX
  5
11E
  8
STANDARD
 10
14.42408298285201
 20
-11.9267411474404
 30
0.0
  0
VERTEX
  5
11F
  8
STANDARD
 10
14.7056917183173
 20
-11.57600667171385
 30
0.0
  0
VERTEX
  5
120
  8
STANDARD
 10
14.97900515938553
 20
-11.21842403003754
 30
0.0
  0
VERTEX
  5
121
  8
STANDARD
 10
15.2438764950607
 20
-10.85414048459156
 30
0.0
  0
VERTEX
  5
122
  8
STANDARD
 10
15.50015891434678
 20
-10.48330329755598
 30
0.0
  0
VERTEX
  5
123
  8
STANDARD
 10
15.74770560624778
 20
-10.10605973111085
 30
0.0
  0
VERTEX
  5
124
  8
STANDARD
 10
15.98636975976769
 20
-9.722557047436258
 30
0.0
  0
VERTEX
  5
125
  8
STANDARD
 10
16.21600456391049
 20
-9.332942508712264
 30
0.0
  0
VERTEX
  5
126
  8
STANDARD
 10
16.43646320768017
 20
-8.937363377118942
 30
0.0
  0
VERTEX
  5
127
  8
STANDARD
 10
16.64759888008073
 20
-8.535966914836358
 30
0.0
  0
VERTEX
  5
128
  8
STANDARD
 10
16.84926477011616
 20
-8.12890038404458
 30
0.0
  0
VERTEX
  5
129
  8
STANDARD
 10
17.04131406679043
 20
-7.716311046923684
 30
0.0
  0
VERTEX
  5
12A
  8
STANDARD
 10
17.22359995910756
 20
-7.298346165653735
 30
0.0
  0
VERTEX
  5
12B
  8
STANDARD
 10
17.39597563607152
 20
-6.875153002414802
 30
0.0
  0
VERTEX
  5
12C
  8
STANDARD
 10
17.55829428668631
 20
-6.446878819386955
 30
0.0
  0
VERTEX
  5
12D
  8
STANDARD
 10
17.71040909995591
 20
-6.013670878750263
 30
0.0
  0
VERTEX
  5
12E
  8
STANDARD
 10
17.85217326488432
 20
-5.575676442684797
 30
0.0
  0
VERTEX
  5
12F
  8
STANDARD
 10
17.98343997047553
 20
-5.133042773370626
 30
0.0
  0
VERTEX
  5
130
  8
STANDARD
 10
18.10406240573352
 20
-4.685917132987817
 30
0.0
  0
VERTEX
  5
131
  8
STANDARD
 10
18.21389375966229
 20
-4.234446783716442
 30
0.0
  0
VERTEX
  5
132
  8
STANDARD
 10
18.31278722126583
 20
-3.778778987736569
 30
0.0
  0
VERTEX
  5
133
  8
STANDARD
 10
18.40059597954812
 20
-3.319061007228267
 30
0.0
  0
VERTEX
  5
134
  8
STANDARD
 10
18.47717322351316
 20
-2.855440104371607
 30
0.0
  0
VERTEX
  5
135
  8
STANDARD
 10
18.54237214216494
 20
-2.388063541346658
 30
0.0
  0
VERTEX
  5
136
  8
STANDARD
 10
18.59604592450745
 20
-1.917078580333489
 30
0.0
  0
VERTEX
  5
137
  8
STANDARD
 10
18.63804775954468
 20
-1.442632483512169
 30
0.0
  0
VERTEX
  5
138
  8
STANDARD
 10
18.66823083628062
 20
-0.9648725130627673
 30
0.0
  0
VERTEX
  5
139
  8
STANDARD
 10
18.68644834371926
 20
-0.4839459311653541
 30
0.0
  0
VERTEX
  5
13A
  8
STANDARD
 10
18.69255347086458
 20
0.0000000000000018
 30
0.0
  0
VERTEX
  5
13B
  8
STANDARD
 10
18.68644834371926
 20
0.4839459311653577
 30
0.0
  0
VERTEX
  5
13C
  8
STANDARD
 10
18.66823083628062
 20
0.9648725130627711
 30
0.0
  0
VERTEX
  5
13D
  8
STANDARD
 10
18.63804775954468
 20
1.442632483512173
 30
0.0
  0
VERTEX
  5
13E
  8
STANDARD
 10
18.59604592450745
 20
1.917078580333493
 30
0.0
  0
VERTEX
  5
13F
  8
STANDARD
 10
18.54237214216494
 20
2.388063541346662
 30
0.0
  0
VERTEX
  5
140
  8
STANDARD
 10
18.47717322351316
 20
2.855440104371612
 30
0.0
  0
VERTEX
  5
141
  8
STANDARD
 10
18.40059597954812
 20
3.319061007228272
 30
0.0
  0
VERTEX
  5
142
  8
STANDARD
 10
18.31278722126583
 20
3.778778987736573
 30
0.0
  0
VERTEX
  5
143
  8
STANDARD
 10
18.21389375966229
 20
4.234446783716446
 30
0.0
  0
VERTEX
  5
144
  8
STANDARD
 10
18.10406240573352
 20
4.685917132987822
 30
0.0
  0
VERTEX
  5
145
  8
STANDARD
 10
17.98343997047553
 20
5.133042773370629
 30
0.0
  0
VERTEX
  5
146
  8
STANDARD
 10
17.85217326488432
 20
5.575676442684802
 30
0.0
  0
VERTEX
  5
147
  8
STANDARD
 10
17.71040909995591
 20
6.013670878750268
 30
0.0
  0
VERTEX
  5
148
  8
STANDARD
 10
17.55829428668631
 20
6.44687881938696
 30
0.0
  0
VERTEX
  5
149
  8
STANDARD
 10
17.39597563607152
 20
6.875153002414806
 30
0.0
  0
VERTEX
  5
14A
  8
STANDARD
 10
17.22359995910756
 20
7.298346165653739
 30
0.0
  0
VERTEX
  5
14B
  8
STANDARD
 10
17.04131406679043
 20
7.716311046923689
 30
0.0
  0
VERTEX
  5
14C
  8
STANDARD
 10
16.84926477011616
 20
8.128900384044586
 30
0.0
  0
VERTEX
  5
14D
  8
STANDARD
 10
16.64759888008073
 20
8.535966914836361
 30
0.0
  0
VERTEX
  5
14E
  8
STANDARD
 10
16.43646320768017
 20
8.937363377118945
 30
0.0
  0
VERTEX
  5
14F
  8
STANDARD
 10
16.21600456391049
 20
9.332942508712268
 30
0.0
  0
VERTEX
  5
150
  8
STANDARD
 10
15.98636975976769
 20
9.722557047436261
 30
0.0
  0
VERTEX
  5
151
  8
STANDARD
 10
15.74770560624778
 20
10.10605973111086
 30
0.0
  0
VERTEX
  5
152
  8
STANDARD
 10
15.50015891434678
 20
10.48330329755598
 30
0.0
  0
VERTEX
  5
153
  8
STANDARD
 10
15.2438764950607
 20
10.85414048459157
 30
0.0
  0
VERTEX
  5
154
  8
STANDARD
 10
14.97900515938553
 20
11.21842403003755
 30
0.0
  0
VERTEX
  5
155
  8
STANDARD
 10
14.7056917183173
 20
11.57600667171385
 30
0.0
  0
VERTEX
  5
156
  8
STANDARD
 10
14.42408298285201
 20
11.9267411474404
 30
0.0
  0
VERTEX
  5
157
  8
STANDARD
 10
14.13432576398568
 20
12.27048019503714
 30
0.0
  0
VERTEX
  5
158
  8
STANDARD
 10
13.8365668727143
 20
12.607076552324
 30
0.0
  0
VERTEX
  5
159
  8
STANDARD
 10
13.5309531200339
 20
12.93638295712089
 30
0.0
  0
VERTEX
  5
15A
  8
STANDARD
 10
13.21763131694048
 20
13.25825214724777
 30
0.0
  0
VERTEX
  5
15B
  8
STANDARD
 10
12.89674827443005
 20
13.57253686052455
 30
0.0
  0
VERTEX
  5
15C
  8
STANDARD
 10
12.56845080349863
 20
13.87908983477117
 30
0.0
  0
VERTEX
  5
15D
  8
STANDARD
 10
12.23288571514222
 20
14.17776380780756
 30
0.0
  0
VERTEX
  5
15E
  8
STANDARD
 10
11.89019982035682
 20
14.46841151745365
 30
0.0
  0
VERTEX
  5
15F
  8
STANDARD
 10
11.54053993013846
 20
14.75088570152936
 30
0.0
  0
VERTEX
  5
160
  8
STANDARD
 10
11.18405285548314
 20
15.02503909785464
 30
0.0
  0
VERTEX
  5
161
  8
STANDARD
 10
10.82088540738687
 20
15.2907244442494
 30
0.0
  0
VERTEX
  5
162
  8
STANDARD
 10
10.45118439684566
 20
15.54779447853359
 30
0.0
  0
VERTEX
  5
163
  8
STANDARD
 10
10.07509663485552
 20
15.79610193852713
 30
0.0
  0
VERTEX
  5
164
  8
STANDARD
 10
9.692768932412452
 20
16.03549956204995
 30
0.0
  0
VERTEX
  5
165
  8
STANDARD
 10
9.304348100512481
 20
16.26584008692198
 30
0.0
  0
VERTEX
  5
166
  8
STANDARD
 10
8.90998095015161
 20
16.48697625096316
 30
0.0
  0
VERTEX
  5
167
  8
STANDARD
 10
8.509814292325846
 20
16.69876079199341
 30
0.0
  0
VERTEX
  5
168
  8
STANDARD
 10
8.1039949380312
 20
16.90104644783267
 30
0.0
  0
VERTEX
  5
169
  8
STANDARD
 10
7.692669698263683
 20
17.09368595630086
 30
0.0
  0
VERTEX
  5
16A
  8
STANDARD
 10
7.275985384019304
 20
17.27653205521792
 30
0.0
  0
VERTEX
  5
16B
  8
STANDARD
 10
6.854088806294073
 20
17.44943748240377
 30
0.0
  0
VERTEX
  5
16C
  8
STANDARD
 10
6.427126776084
 20
17.61225497567835
 30
0.0
  0
VERTEX
  5
16D
  8
STANDARD
 10
5.995246104385094
 20
17.76483727286159
 30
0.0
  0
VERTEX
  5
16E
  8
STANDARD
 10
5.558593602193366
 20
17.90703711177342
 30
0.0
  0
VERTEX
  5
16F
  8
STANDARD
 10
5.117316080504825
 20
18.03870723023376
 30
0.0
  0
VERTEX
  5
170
  8
STANDARD
 10
4.67156035031548
 20
18.15970036606256
 30
0.0
  0
VERTEX
  5
171
  8
STANDARD
 10
4.221473222621342
 20
18.26986925707974
 30
0.0
  0
VERTEX
  5
172
  8
STANDARD
 10
3.76720150841842
 20
18.36906664110523
 30
0.0
  0
VERTEX
  5
173
  8
STANDARD
 10
3.308892018702724
 20
18.45714525595896
 30
0.0
  0
VERTEX
  5
174
  8
STANDARD
 10
2.846691564470264
 20
18.53395783946086
 30
0.0
  0
VERTEX
  5
175
  8
STANDARD
 10
2.380746956717049
 20
18.59935712943086
 30
0.0
  0
VERTEX
  5
176
  8
STANDARD
 10
1.91120500643909
 20
18.6531958636889
 30
0.0
  0
VERTEX
  5
177
  8
STANDARD
 10
1.438212524632395
 20
18.6953267800549
 30
0.0
  0
VERTEX
  5
178
  8
STANDARD
 10
0.9619163222929756
 20
18.7256026163488
 30
0.0
  0
VERTEX
  5
179
  8
STANDARD
 10
0.4824632104168406
 20
18.74387611039052
 30
0.0
  0
SEQEND
  5
17A
  8
STANDARD
  0
POLYLINE
  5
42
  8
STANDARD
 66
     1
 10
0.0
 20
0.0
 30
0.0
 70
     1
  0
VERTEX
  5
17B
  8
STANDARD
 10
-14.00274977118393
 20
1.560320172991073
 30
0.0
  0
VERTEX
  5
17C
  8
STANDARD
 10
-14.16656734316442
 20
1.552022675592979
 30
0.0
  0
VERTEX
  5
17D
  8
STANDARD
 10
-14.32565275761979
 20
1.527668742228664
 30
0.0
  0
VERTEX
  5
17E
  8
STANDARD
 10
-14.47920065137193
 20
1.48806621114308
 30
0.0
  0
VERTEX
  5
17F
  8
STANDARD
 10
-14.62640566124273
 20
1.43402292058118
 30
0.0
  0
VERTEX
  5
180
  8
STANDARD
 10
-14.76646242405407
 20
1.366346708787916
 30
0.0
  0
VERTEX
  5
181
  8
STANDARD
 10
-14.89856557662784
 20
1.285845414008238
 30
0.0
  0
VERTEX
  5
182
  8
STANDARD
 10
-15.02190975578594
 20
1.1933268744871
 30
0.0
  0
VERTEX
  5
183
  8
STANDARD
 10
-15.13568959835026
 20
1.089598928469454
 30
0.0
  0
VERTEX
  5
184
  8
STANDARD
 10
-15.23909974114267
 20
0.9754694142002506
 30
0.0
  0
VERTEX
  5
185
  8
STANDARD
 10
-15.33133482098508
 20
0.851746169924443
 30
0.0
  0
VERTEX
  5
186
  8
STANDARD
 10
-15.41158947469937
 20
0.7192370338869829
 30
0.0
  0
VERTEX
  5
187
  8
STANDARD
 10
-15.47905833910743
 20
0.5787498443328224
 30
0.0
  0
VERTEX
  5
188
  8
STANDARD
 10
-15.53293605103116
 20
0.4310924395069134
 30
0.0
  0
VERTEX
  5
189
  8
STANDARD
 10
-15.57241724729243
 20
0.277072657654208
 30
0.0
  0
VERTEX
  5
18A
  8
STANDARD
 10
-15.59669656471314
 20
0.1174983370196583
 30
0.0
  0
VERTEX
  5
18B
  8
STANDARD
 10
-15.60496864011518
 20
-0.0468226841517839
 30
0.0
  0
VERTEX
  5
18C
  8
STANDARD
 10
-15.59669656471314
 20
-0.2111437053232261
 30
0.0
  0
VERTEX
  5
18D
  8
STANDARD
 10
-15.57241724729243
 20
-0.3707180259577759
 30
0.0
  0
VERTEX
  5
18E
  8
STANDARD
 10
-15.53293605103116
 20
-0.5247378078104813
 30
0.0
  0
VERTEX
  5
18F
  8
STANDARD
 10
-15.47905833910743
 20
-0.6723952126363902
 30
0.0
  0
VERTEX
  5
190
  8
STANDARD
 10
-15.41158947469937
 20
-0.8128824021905507
 30
0.0
  0
VERTEX
  5
191
  8
STANDARD
 10
-15.33133482098508
 20
-0.9453915382280108
 30
0.0
  0
VERTEX
  5
192
  8
STANDARD
 10
-15.23909974114267
 20
-1.069114782503818
 30
0.0
  0
VERTEX
  5
193
  8
STANDARD
 10
-15.13568959835026
 20
-1.183244296773021
 30
0.0
  0
VERTEX
  5
194
  8
STANDARD
 10
-15.02190975578594
 20
-1.286972242790668
 30
0.0
  0
VERTEX
  5
195
  8
STANDARD
 10
-14.89856557662784
 20
-1.379490782311806
 30
0.0
  0
VERTEX
  5
196
  8
STANDARD
 10
-14.76646242405407
 20
-1.459992077091483
 30
0.0
  0
VERTEX
  5
197
  8
STANDARD
 10
-14.62640566124273
 20
-1.527668288884748
 30
0.0
  0
VERTEX
  5
198
  8
STANDARD
 10
-14.47920065137193
 20
-1.581711579446648
 30
0.0
  0
VERTEX
  5
199
  8
STANDARD
 10
-14.32565275761979
 20
-1.621314110532232
 30
0.0
  0
VERTEX
  5
19A
  8
STANDARD
 10
-14.16656734316442
 20
-1.645668043896547
 30
0.0
  0
VERTEX
  5
19B
  8
STANDARD
 10
-14.00274977118393
 20
-1.653965541294641
 30
0.0
  0
VERTEX
  5
19C
  8
STANDARD
 10
-13.83893219920343
 20
-1.645668043896547
 30
0.0
  0
VERTEX
  5
19D
  8
STANDARD
 10
-13.67984678474807
 20
-1.621314110532232
 30
0.0
  0
VERTEX
  5
19E
  8
STANDARD
 10
-13.52629889099592
 20
-1.581711579446648
 30
0.0
  0
VERTEX
  5
19F
  8
STANDARD
 10
-13.37909388112513
 20
-1.527668288884748
 30
0.0
  0
VERTEX
  5
1A0
  8
STANDARD
 10
-13.23903711831379
 20
-1.459992077091483
 30
0.0
  0
VERTEX
  5
1A1
  8
STANDARD
 10
-13.10693396574002
 20
-1.379490782311806
 30
0.0
  0
VERTEX
  5
1A2
  8
STANDARD
 10
-12.98358978658191
 20
-1.286972242790668
 30
0.0
  0
VERTEX
  5
1A3
  8
STANDARD
 10
-12.8698099440176
 20
-1.183244296773021
 30
0.0
  0
VERTEX
  5
1A4
  8
STANDARD
 10
-12.76639980122519
 20
-1.069114782503818
 30
0.0
  0
VERTEX
  5
1A5
  8
STANDARD
 10
-12.67416472138278
 20
-0.9453915382280108
 30
0.0
  0
VERTEX
  5
1A6
  8
STANDARD
 10
-12.59391006766849
 20
-0.8128824021905507
 30
0.0
  0
VERTEX
  5
1A7
  8
STANDARD
 10
-12.52644120326042
 20
-0.6723952126363902
 30
0.0
  0
VERTEX
  5
1A8
  8
STANDARD
 10
-12.4725634913367
 20
-0.5247378078104813
 30
0.0
  0
VERTEX
  5
1A9
  8
STANDARD
 10
-12.43308229507543
 20
-0.3707180259577759
 30
0.0
  0
VERTEX
  5
1AA
  8
STANDARD
 10
-12.40880297765472
 20
-0.2111437053232261
 30
0.0
  0
VERTEX
  5
1AB
  8
STANDARD
 10
-12.40053090225268
 20
-0.0468226841517839
 30
0.0
  0
VERTEX
  5
1AC
  8
STANDARD
 10
-12.40880297765472
 20
0.1174983370196583
 30
0.0
  0
VERTEX
  5
1AD
  8
STANDARD
 10
-12.43308229507543
 20
0.277072657654208
 30
0.0
  0
VERTEX
  5
1AE
  8
STANDARD
 10
-12.4725634913367
 20
0.4310924395069134
 30
0.0
  0
VERTEX
  5
1AF
  8
STANDARD
 10
-12.52644120326042
 20
0.5787498443328224
 30
0.0
  0
VERTEX
  5
1B0
  8
STANDARD
 10
-12.59391006766849
 20
0.7192370338869829
 30
0.0
  0
VERTEX
  5
1B1
  8
STANDARD
 10
-12.67416472138278
 20
0.851746169924443
 30
0.0
  0
VERTEX
  5
1B2
  8
STANDARD
 10
-12.76639980122519
 20
0.9754694142002506
 30
0.0
  0
VERTEX
  5
1B3
  8
STANDARD
 10
-12.8698099440176
 20
1.089598928469454
 30
0.0
  0
VERTEX
  5
1B4
  8
STANDARD
 10
-12.98358978658191
 20
1.1933268744871
 30
0.0
  0
VERTEX
  5
1B5
  8
STANDARD
 10
-13.10693396574002
 20
1.285845414008238
 30
0.0
  0
VERTEX
  5
1B6
  8
STANDARD
 10
-13.23903711831379
 20
1.366346708787916
 30
0.0
  0
VERTEX
  5
1B7
  8
STANDARD
 10
-13.37909388112513
 20
1.43402292058118
 30
0.0
  0
VERTEX
  5
1B8
  8
STANDARD
 10
-13.52629889099592
 20
1.48806621114308
 30
0.0
  0
VERTEX
  5
1B9
  8
STANDARD
 10
-13.67984678474807
 20
1.527668742228664
 30
0.0
  0
VERTEX
  5
1BA
  8
STANDARD
 10
-13.83893219920343
 20
1.552022675592979
 30
0.0
  0
SEQEND
  5
1BB
  8
STANDARD
  0
POLYLINE
  5
43
  8
STANDARD
 66
     1
 10
0.0
 20
0.0
 30
0.0
 70
     1
  0
VERTEX
  5
1BC
  8
STANDARD
 10
14.00274977118285
 20
1.560320172991073
 30
0.0
  0
VERTEX
  5
1BD
  8
STANDARD
 10
13.83893219920235
 20
1.552022675592979
 30
0.0
  0
VERTEX
  5
1BE
  8
STANDARD
 10
13.67984678474699
 20
1.527668742228664
 30
0.0
  0
VERTEX
  5
1BF
  8
STANDARD
 10
13.52629889099484
 20
1.48806621114308
 30
0.0
  0
VERTEX
  5
1C0
  8
STANDARD
 10
13.37909388112405
 20
1.43402292058118
 30
0.0
  0
VERTEX
  5
1C1
  8
STANDARD
 10
13.23903711831271
 20
1.366346708787916
 30
0.0
  0
VERTEX
  5
1C2
  8
STANDARD
 10
13.10693396573894
 20
1.285845414008238
 30
0.0
  0
VERTEX
  5
1C3
  8
STANDARD
 10
12.98358978658083
 20
1.1933268744871
 30
0.0
  0
VERTEX
  5
1C4
  8
STANDARD
 10
12.86980994401652
 20
1.089598928469454
 30
0.0
  0
VERTEX
  5
1C5
  8
STANDARD
 10
12.76639980122411
 20
0.9754694142002506
 30
0.0
  0
VERTEX
  5
1C6
  8
STANDARD
 10
12.6741647213817
 20
0.851746169924443
 30
0.0
  0
VERTEX
  5
1C7
  8
STANDARD
 10
12.59391006766741
 20
0.7192370338869829
 30
0.0
  0
VERTEX
  5
1C8
  8
STANDARD
 10
12.52644120325934
 20
0.5787498443328224
 30
0.0
  0
VERTEX
  5
1C9
  8
STANDARD
 10
12.47256349133562
 20
0.4310924395069134
 30
0.0
  0
VERTEX
  5
1CA
  8
STANDARD
 10
12.43308229507435
 20
0.277072657654208
 30
0.0
  0
VERTEX
  5
1CB
  8
STANDARD
 10
12.40880297765364
 20
0.1174983370196583
 30
0.0
  0
VERTEX
  5
1CC
  8
STANDARD
 10
12.4005309022516
 20
-0.0468226841517839
 30
0.0
  0
VERTEX
  5
1CD
  8
STANDARD
 10
12.40880297765364
 20
-0.2111437053232261
 30
0.0
  0
VERTEX
  5
1CE
  8
STANDARD
 10
12.43308229507435
 20
-0.3707180259577759
 30
0.0
  0
VERTEX
  5
1CF
  8
STANDARD
 10
12.47256349133562
 20
-0.5247378078104813
 30
0.0
  0
VERTEX
  5
1D0
  8
STANDARD
 10
12.52644120325934
 20
-0.6723952126363902
 30
0.0
  0
VERTEX
  5
1D1
  8
STANDARD
 10
12.59391006766741
 20
-0.8128824021905507
 30
0.0
  0
VERTEX
  5
1D2
  8
STANDARD
 10
12.6741647213817
 20
-0.9453915382280108
 30
0.0
  0
VERTEX
  5
1D3
  8
STANDARD
 10
12.76639980122411
 20
-1.069114782503818
 30
0.0
  0
VERTEX
  5
1D4
  8
STANDARD
 10
12.86980994401652
 20
-1.183244296773021
 30
0.0
  0
VERTEX
  5
1D5
  8
STANDARD
 10
12.98358978658083
 20
-1.286972242790668
 30
0.0
  0
VERTEX
  5
1D6
  8
STANDARD
 10
13.10693396573894
 20
-1.379490782311806
 30
0.0
  0
VERTEX
  5
1D7
  8
STANDARD
 10
13.23903711831271
 20
-1.459992077091483
 30
0.0
  0
VERTEX
  5
1D8
  8
STANDARD
 10
13.37909388112405
 20
-1.527668288884748
 30
0.0
  0
VERTEX
  5
1D9
  8
STANDARD
 10
13.52629889099484
 20
-1.581711579446648
 30
0.0
  0
VERTEX
  5
1DA
  8
STANDARD
 10
13.67984678474699
 20
-1.621314110532232
 30
0.0
  0
VERTEX
  5
1DB
  8
STANDARD
 10
13.83893219920235
 20
-1.645668043896547
 30
0.0
  0
VERTEX
  5
1DC
  8
STANDARD
 10
14.00274977118285
 20
-1.653965541294641
 30
0.0
  0
VERTEX
  5
1DD
  8
STANDARD
 10
14.16656734316334
 20
-1.645668043896547
 30
0.0
  0
VERTEX
  5
1DE
  8
STANDARD
 10
14.32565275761871
 20
-1.621314110532232
 30
0.0
  0
VERTEX
  5
1DF
  8
STANDARD
 10
14.47920065137085
 20
-1.581711579446648
 30
0.0
  0
VERTEX
  5
1E0
  8
STANDARD
 10
14.62640566124165
 20
-1.527668288884748
 30
0.0
  0
VERTEX
  5
1E1
  8
STANDARD
 10
14.76646242405299
 20
-1.459992077091483
 30
0.0
  0
VERTEX
  5
1E2
  8
STANDARD
 10
14.89856557662676
 20
-1.379490782311806
 30
0.0
  0
VERTEX
  5
1E3
  8
STANDARD
 10
15.02190975578486
 20
-1.286972242790668
 30
0.0
  0
VERTEX
  5
1E4
  8
STANDARD
 10
15.13568959834918
 20
-1.183244296773021
 30
0.0
  0
VERTEX
  5
1E5
  8
STANDARD
 10
15.23909974114159
 20
-1.069114782503818
 30
0.0
  0
VERTEX
  5
1E6
  8
STANDARD
 10
15.331334820984
 20
-0.9453915382280108
 30
0.0
  0
VERTEX
  5
1E7
  8
STANDARD
 10
15.41158947469829
 20
-0.8128824021905507
 30
0.0
  0
VERTEX
  5
1E8
  8
STANDARD
 10
15.47905833910635
 20
-0.6723952126363902
 30
0.0
  0
VERTEX
  5
1E9
  8
STANDARD
 10
15.53293605103008
 20
-0.5247378078104813
 30
0.0
  0
VERTEX
  5
1EA
  8
STANDARD
 10
15.57241724729135
 20
-0.3707180259577759
 30
0.0
  0
VERTEX
  5
1EB
  8
STANDARD
 10
15.59669656471206
 20
-0.2111437053232261
 30
0.0
  0
VERTEX
  5
1EC
  8
STANDARD
 10
15.6049686401141
 20
-0.0468226841517839
 30
0.0
  0
VERTEX
  5
1ED
  8
STANDARD
 10
15.59669656471206
 20
0.1174983370196583
 30
0.0
  0
VERTEX
  5
1EE
  8
STANDARD
 10
15.57241724729135
 20
0.277072657654208
 30
0.0
  0
VERTEX
  5
1EF
  8
STANDARD
 10
15.53293605103008
 20
0.4310924395069134
 30
0.0
  0
VERTEX
  5
1F0
  8
STANDARD
 10
15.47905833910635
 20
0.5787498443328224
 30
0.0
  0
VERTEX
  5
1F1
  8
STANDARD
 10
15.41158947469829
 20
0.7192370338869829
 30
0.0
  0
VERTEX
  5
1F2
  8
STANDARD
 10
15.331334820984
 20
0.851746169924443
 30
0.0
  0
VERTEX
  5
1F3
  8
STANDARD
 10
15.23909974114159
 20
0.9754694142002506
 30
0.0
  0
VERTEX
  5
1F4
  8
STANDARD
 10
15.13568959834918
 20
1.089598928469454
 30
0.0
  0
VERTEX
  5
1F5
  8
STANDARD
 10
15.02190975578486
 20
1.1933268744871
 30
0.0
  0
VERTEX
  5
1F6
  8
STANDARD
 10
14.89856557662676
 20
1.285845414008238
 30
0.0
  0
VERTEX
  5
1F7
  8
STANDARD
 10
14.76646242405299
 20
1.366346708787916
 30
0.0
  0
VERTEX
  5
1F8
  8
STANDARD
 10
14.62640566124165
 20
1.43402292058118
 30
0.0
  0
VERTEX
  5
1F9
  8
STANDARD
 10
14.47920065137085
 20
1.48806621114308
 30
0.0
  0
VERTEX
  5
1FA
  8
STANDARD
 10
14.32565275761871
 20
1.527668742228664
 30
0.0
  0
VERTEX
  5
1FB
  8
STANDARD
 10
14.16656734316334
 20
1.552022675592979
 30
0.0
  0
SEQEND
  5
1FC
  8
STANDARD
  0
POLYLINE
  5
44
  8
STANDARD
 66
     1
 10
0.0
 20
0.0
 30
0.0
 70
     1
  0
VERTEX
  5
1FD
  8
STANDARD
 10
-12.39882164125611
 20
5.424696302230158
 30
0.0
  0
VERTEX
  5
1FE
  8
STANDARD
 10
-12.246387451726
 20
5.776144813876802
 30
0.0
  0
VERTEX
  5
1FF
  8
STANDARD
 10
-12.14177711650372
 20
5.739703007072904
 30
0.0
  0
VERTEX
  5
200
  8
STANDARD
 10
-12.04191017011118
 20
5.71608473047158
 30
0.0
  0
VERTEX
  5
201
  8
STANDARD
 10
-11.94678661254838
 20
5.705289984072829
 30
0.0
  0
VERTEX
  5
202
  8
STANDARD
 10
-11.85640644381533
 20
5.707318767876651
 30
0.0
  0
VERTEX
  5
203
  8
STANDARD
 10
-11.76822481690723
 20
5.723455681281445
 30
0.0
  0
VERTEX
  5
204
  8
STANDARD
 10
-11.67969688481932
 20
5.754985323685611
 30
0.0
  0
VERTEX
  5
205
  8
STANDARD
 10
-11.59082264755158
 20
5.801907695089147
 30
0.0
  0
VERTEX
  5
206
  8
STANDARD
 10
-11.50160210510403
 20
5.864222795492054
 30
0.0
  0
VERTEX
  5
207
  8
STANDARD
 10
-11.41562651814859
 20
5.939806392613716
 30
0.0
  0
VERTEX
  5
208
  8
STANDARD
 10
-11.3364871473572
 20
6.026534254173515
 30
0.0
  0
VERTEX
  5
209
  8
STANDARD
 10
-11.26418399272987
 20
6.124406380171452
 30
0.0
  0
VERTEX
  5
20A
  8
STANDARD
 10
-11.1987170542666
 20
6.233422770607527
 30
0.0
  0
VERTEX
  5
20B
  8
STANDARD
 10
-11.14900079815087
 20
6.33425198132106
 30
0.0
  0
VERTEX
  5
20C
  8
STANDARD
 10
-11.11005075256078
 20
6.433230397226125
 30
0.0
  0
VERTEX
  5
20D
  8
STANDARD
 10
-11.08186691749633
 20
6.530358018322722
 30
0.0
  0
VERTEX
  5
20E
  8
STANDARD
 10
-11.06444929295751
 20
6.62563484461085
 30
0.0
  0
VERTEX
  5
20F
  8
STANDARD
 10
-11.05791271519662
 20
6.716526541017656
 30
0.0
  0
VERTEX
  5
210
  8
STANDARD
 10
-11.06237202046594
 20
6.800498772470288
 30
0.0
  0
VERTEX
  5
211
  8
STANDARD
 10
-11.07782720876547
 20
6.877551538968746
 30
0.0
  0
VERTEX
  5
212
  8
STANDARD
 10
-11.10427828009522
 20
6.947684840513031
 30
0.0
  0
VERTEX
  5
213
  8
STANDARD
 10
-11.14000181256954
 20
7.010256500857931
 30
0.0
  0
VERTEX
  5
214
  8
STANDARD
 10
-11.18327438430281
 20
7.064624343758235
 30
0.0
  0
VERTEX
  5
215
  8
STANDARD
 10
-11.23409599529503
 20
7.110788369213944
 30
0.0
  0
VERTEX
  5
216
  8
STANDARD
 10
-11.29246664554619
 20
7.148748577225057
 30
0.0
  0
VERTEX
  5
217
  8
STANDARD
 10
-11.35600851291806
 20
7.177432060160528
 30
0.0
  0
VERTEX
  5
218
  8
STANDARD
 10
-11.42051597615826
 20
7.194770078057284
 30
0.0
  0
VERTEX
  5
219
  8
STANDARD
 10
-11.48598903526678
 20
7.200762630915328
 30
0.0
  0
VERTEX
  5
21A
  8
STANDARD
 10
-11.55242769024363
 20
7.195409718734657
 30
0.0
  0
VERTEX
  5
21B
  8
STANDARD
 10
-11.62069076449801
 20
7.177398518764162
 30
0.0
  0
VERTEX
  5
21C
  8
STANDARD
 10
-11.69163708143914
 20
7.145416208252731
 30
0.0
  0
VERTEX
  5
21D
  8
STANDARD
 10
-11.76526664106702
 20
7.099462787200367
 30
0.0
  0
VERTEX
  5
21E
  8
STANDARD
 10
-11.84157944338163
 20
7.039538255607068
 30
0.0
  0
VERTEX
  5
21F
  8
STANDARD
 10
-11.98933706921736
 20
6.895074630015076
 30
0.0
  0
VERTEX
  5
220
  8
STANDARD
 10
-12.23138299571447
 20
6.632218596738904
 30
0.0
  0
VERTEX
  5
221
  8
STANDARD
 10
-12.48802821485582
 20
6.364257935129201
 30
0.0
  0
VERTEX
  5
222
  8
STANDARD
 10
-12.59194218116165
 20
6.270846285955767
 30
0.0
  0
VERTEX
  5
223
  8
STANDARD
 10
-12.67958371862425
 20
6.204480424536611
 30
0.0
  0
VERTEX
  5
224
  8
STANDARD
 10
-12.78167689164064
 20
6.143391287898914
 30
0.0
  0
VERTEX
  5
225
  8
STANDARD
 10
-12.88318542437181
 20
6.097861817785148
 30
0.0
  0
VERTEX
  5
226
  8
STANDARD
 10
-12.98410931681777
 20
6.067892014195311
 30
0.0
  0
VERTEX
  5
227
  8
STANDARD
 10
-13.08444856897852
 20
6.053481877129405
 30
0.0
  0
VERTEX
  5
228
  8
STANDARD
 10
-13.18352761640237
 20
6.053966552896857
 30
0.0
  0
VERTEX
  5
229
  8
STANDARD
 10
-13.28067089463766
 20
6.068681187807099
 30
0.0
  0
VERTEX
  5
22A
  8
STANDARD
 10
-13.37587840368439
 20
6.097625781860128
 30
0.0
  0
VERTEX
  5
22B
  8
STANDARD
 10
-13.46915014354256
 20
6.140800335055946
 30
0.0
  0
VERTEX
  5
22C
  8
STANDARD
 10
-13.56502747511593
 20
6.202385633359654
 30
0.0
  0
VERTEX
  5
22D
  8
STANDARD
 10
-13.64977376816689
 20
6.276604139416118
 30
0.0
  0
VERTEX
  5
22E
  8
STANDARD
 10
-13.72338902269544
 20
6.363455853225336
 30
0.0
  0
VERTEX
  5
22F
  8
STANDARD
 10
-13.78587323870158
 20
6.462940774787309
 30
0.0
  0
VERTEX
  5
230
  8
STANDARD
 10
-13.83388106210894
 20
6.572494296824713
 30
0.0
  0
VERTEX
  5
231
  8
STANDARD
 10
-13.86406713884116
 20
6.689551812060223
 30
0.0
  0
VERTEX
  5
232
  8
STANDARD
 10
-13.87643146889824
 20
6.814113320493842
 30
0.0
  0
VERTEX
  5
233
  8
STANDARD
 10
-13.87097405228018
 20
6.946178822125566
 30
0.0
  0
VERTEX
  5
234
  8
STANDARD
 10
-13.84921857167257
 20
7.081978234430459
 30
0.0
  0
VERTEX
  5
235
  8
STANDARD
 10
-13.81268870976102
 20
7.21774147488358
 30
0.0
  0
VERTEX
  5
236
  8
STANDARD
 10
-13.76138446654554
 20
7.353468543484928
 30
0.0
  0
VERTEX
  5
237
  8
STANDARD
 10
-13.69530584202611
 20
7.489159440234504
 30
0.0
  0
VERTEX
  5
238
  8
STANDARD
 10
-13.61078558133538
 20
7.630903640815134
 30
0.0
  0
VERTEX
  5
239
  8
STANDARD
 10
-13.51904814889749
 20
7.757289375472411
 30
0.0
  0
VERTEX
  5
23A
  8
STANDARD
 10
-13.42009354471243
 20
7.868316644206335
 30
0.0
  0
VERTEX
  5
23B
  8
STANDARD
 10
-13.31392176878021
 20
7.963985447016904
 30
0.0
  0
VERTEX
  5
23C
  8
STANDARD
 10
-13.20205446121197
 20
8.042305320535927
 30
0.0
  0
VERTEX
  5
23D
  8
STANDARD
 10
-13.08601326211885
 20
8.10128580139521
 30
0.0
  0
VERTEX
  5
23E
  8
STANDARD
 10
-12.96579817150085
 20
8.140926889594752
 30
0.0
  0
VERTEX
  5
23F
  8
STANDARD
 10
-12.84140918935798
 20
8.161228585134557
 30
0.0
  0
VERTEX
  5
240
  8
STANDARD
 10
-12.71569587793121
 20
8.163075628879582
 30
0.0
  0
VERTEX
  5
241
  8
STANDARD
 10
-12.5915077994615
 20
8.147352761694787
 30
0.0
  0
VERTEX
  5
242
  8
STANDARD
 10
-12.46884495394885
 20
8.114059983580173
 30
0.0
  0
VERTEX
  5
243
  8
STANDARD
 10
-12.34770734139327
 20
8.06319729453574
 30
0.0
  0
VERTEX
  5
244
  8
STANDARD
 10
-12.50677547300995
 20
7.708240198465697
 30
0.0
  0
VERTEX
  5
245
  8
STANDARD
 10
-12.63792171622536
 20
7.751274556041803
 30
0.0
  0
VERTEX
  5
246
  8
STANDARD
 10
-12.76240464971513
 20
7.769458180056019
 30
0.0
  0
VERTEX
  5
247
  8
STANDARD
 10
-12.88022427347926
 20
7.762791070508346
 30
0.0
  0
VERTEX
  5
248
  8
STANDARD
 10
-12.99138058751775
 20
7.731273227398782
 30
0.0
  0
VERTEX
  5
249
  8
STANDARD
 10
-13.09621341663089
 20
7.67345745841587
 30
0.0
  0
VERTEX
  5
24A
  8
STANDARD
 10
-13.19506258561897
 20
7.587896571248145
 30
0.0
  0
VERTEX
  5
24B
  8
STANDARD
 10
-13.287928094482
 20
7.474590565895608
 30
0.0
  0
VERTEX
  5
24C
  8
STANDARD
 10
-13.37480994321998
 20
7.333539442358259
 30
0.0
  0
VERTEX
  5
24D
  8
STANDARD
 10
-13.4488807179165
 20
7.179127557284912
 30
0.0
  0
VERTEX
  5
24E
  8
STANDARD
 10
-13.49636353565248
 20
7.038573181861753
 30
0.0
  0
VERTEX
  5
24F
  8
STANDARD
 10
-13.51725839642792
 20
6.911876316088783
 30
0.0
  0
VERTEX
  5
250
  8
STANDARD
 10
-13.51156530024282
 20
6.799036959966003
 30
0.0
  0
VERTEX
  5
251
  8
STANDARD
 10
-13.48455600244896
 20
6.700701387442141
 30
0.0
  0
VERTEX
  5
252
  8
STANDARD
 10
-13.44150225839815
 20
6.617515872465928
 30
0.0
  0
VERTEX
  5
253
  8
STANDARD
 10
-13.38240406809038
 20
6.549480415037364
 30
0.0
  0
VERTEX
  5
254
  8
STANDARD
 10
-13.30726143152565
 20
6.496595015156447
 30
0.0
  0
VERTEX
  5
255
  8
STANDARD
 10
-13.23472523163526
 20
6.465533890413885
 30
0.0
  0
VERTEX
  5
256
  8
STANDARD
 10
-13.16151276198089
 20
6.451021270416092
 30
0.0
  0
VERTEX
  5
257
  8
STANDARD
 10
-13.08762402256254
 20
6.453057155163071
 30
0.0
  0
VERTEX
  5
258
  8
STANDARD
 10
-13.01305901338021
 20
6.471641544654819
 30
0.0
  0
VERTEX
  5
259
  8
STANDARD
 10
-12.92716685246353
 20
6.518111107875087
 30
0.0
  0
VERTEX
  5
25A
  8
STANDARD
 10
-12.81830387655606
 20
6.605635930170103
 30
0.0
  0
VERTEX
  5
25B
  8
STANDARD
 10
-12.68647008565778
 20
6.734216011539869
 30
0.0
  0
VERTEX
  5
25C
  8
STANDARD
 10
-12.53166547976871
 20
6.903851351984383
 30
0.0
  0
VERTEX
  5
25D
  8
STANDARD
 10
-12.24211128025645
 20
7.219472643611589
 30
0.0
  0
VERTEX
  5
25E
  8
STANDARD
 10
-12.12960355094281
 20
7.32875480317276
 30
0.0
  0
VERTEX
  5
25F
  8
STANDARD
 10
-12.03860873525752
 20
7.405684638565646
 30
0.0
  0
VERTEX
  5
260
  8
STANDARD
 10
-11.92170945120968
 20
7.484008256048238
 30
0.0
  0
VERTEX
  5
261
  8
STANDARD
 10
-11.80592775142102
 20
7.543055921687697
 30
0.0
  0
VERTEX
  5
262
  8
STANDARD
 10
-11.69126363589154
 20
7.582827635484022
 30
0.0
  0
VERTEX
  5
263
  8
STANDARD
 10
-11.57771710462123
 20
7.603323397437213
 30
0.0
  0
VERTEX
  5
264
  8
STANDARD
 10
-11.46537281440634
 20
7.605479696766208
 30
0.0
  0
VERTEX
  5
265
  8
STANDARD
 10
-11.35431542204312
 20
7.590233022689942
 30
0.0
  0
VERTEX
  5
266
  8
STANDARD
 10
-11.24454492753156
 20
7.557583375208416
 30
0.0
  0
VERTEX
  5
267
  8
STANDARD
 10
-11.13606133087168
 20
7.50753075432163
 30
0.0
  0
VERTEX
  5
268
  8
STANDARD
 10
-11.0348345598328
 20
7.442437365410479
 30
0.0
  0
VERTEX
  5
269
  8
STANDARD
 10
-10.9450067430701
 20
7.363669581523826
 30
0.0
  0
VERTEX
  5
26A
  8
STANDARD
 10
-10.8665778805836
 20
7.271227402661676
 30
0.0
  0
VERTEX
  5
26B
  8
STANDARD
 10
-10.79954797237329
 20
7.165110828824027
 30
0.0
  0
VERTEX
  5
26C
  8
STANDARD
 10
-10.74710232033152
 20
7.04831664687787
 30
0.0
  0
VERTEX
  5
26D
  8
STANDARD
 10
-10.71242622635065
 20
6.923841643690201
 30
0.0
  0
VERTEX
  5
26E
  8
STANDARD
 10
-10.69551969043066
 20
6.791685819261018
 30
0.0
  0
VERTEX
  5
26F
  8
STANDARD
 10
-10.69638271257157
 20
6.651849173590322
 30
0.0
  0
VERTEX
  5
270
  8
STANDARD
 10
-10.71465370496635
 20
6.508141351278443
 30
0.0
  0
VERTEX
  5
271
  8
STANDARD
 10
-10.74997107980801
 20
6.36437199692571
 30
0.0
  0
VERTEX
  5
272
  8
STANDARD
 10
-10.80233483709655
 20
6.220541110532128
 30
0.0
  0
VERTEX
  5
273
  8
STANDARD
 10
-10.87174497683196
 20
6.076648692097693
 30
0.0
  0
VERTEX
  5
274
  8
STANDARD
 10
-10.97315033702806
 20
5.905224615945549
 30
0.0
  0
VERTEX
  5
275
  8
STANDARD
 10
-11.07980294168247
 20
5.755802243623092
 30
0.0
  0
VERTEX
  5
276
  8
STANDARD
 10
-11.19170279079518
 20
5.628381575130323
 30
0.0
  0
VERTEX
  5
277
  8
STANDARD
 10
-11.30884988436621
 20
5.522962610467239
 30
0.0
  0
VERTEX
  5
278
  8
STANDARD
 10
-11.43170465851534
 20
5.438831643996961
 30
0.0
  0
VERTEX
  5
279
  8
STANDARD
 10
-11.56072754936236
 20
5.375274970082605
 30
0.0
  0
VERTEX
  5
27A
  8
STANDARD
 10
-11.69591855690729
 20
5.332292588724172
 30
0.0
  0
VERTEX
  5
27B
  8
STANDARD
 10
-11.83727768115011
 20
5.309884499921661
 30
0.0
  0
VERTEX
  5
27C
  8
STANDARD
 10
-11.98070656560056
 20
5.30796953067253
 30
0.0
  0
VERTEX
  5
27D
  8
STANDARD
 10
-12.12210685376838
 20
5.326466507974235
 30
0.0
  0
VERTEX
  5
27E
  8
STANDARD
 10
-12.26147854565356
 20
5.365375431826777
 30
0.0
  0
SEQEND
  5
27F
  8
STANDARD
  0
POLYLINE
  5
45
  8
STANDARD
 66
     1
 10
0.0
 20
0.0
 30
0.0
 70
     1
  0
VERTEX
  5
280
  8
STANDARD
 10
-10.06467400323965
 20
7.540822431820974
 30
0.0
  0
VERTEX
  5
281
  8
STANDARD
 10
-12.30824473995821
 20
9.612268720918053
 30
0.0
  0
VERTEX
  5
282
  8
STANDARD
 10
-12.03496414401211
 20
9.91007933139044
 30
0.0
  0
VERTEX
  5
283
  8
STANDARD
 10
-10.05615311906184
 20
8.083080660310957
 30
0.0
  0
VERTEX
  5
284
  8
STANDARD
 10
-9.03909853002533
 20
9.191427365264897
 30
0.0
  0
VERTEX
  5
285
  8
STANDARD
 10
-8.774338818257041
 20
8.946979747247301
 30
0.0
  0
SEQEND
  5
286
  8
STANDARD
  0
POLYLINE
  5
46
  8
STANDARD
 66
     1
 10
0.0
 20
0.0
 30
0.0
 70
     1
  0
VERTEX
  5
287
  8
STANDARD
 10
-8.36429685352215
 20
9.313975567278902
 30
0.0
  0
VERTEX
  5
288
  8
STANDARD
 10
-10.42939661464061
 20
11.56444131445684
 30
0.0
  0
VERTEX
  5
289
  8
STANDARD
 10
-10.13249844075016
 20
11.83856176471935
 30
0.0
  0
VERTEX
  5
28A
  8
STANDARD
 10
-8.0673986796317
 20
9.588096017541407
 30
0.0
  0
SEQEND
  5
28B
  8
STANDARD
  0
POLYLINE
  5
47
  8
STANDARD
 66
     1
 10
0.0
 20
0.0
 30
0.0
 70
     1
  0
VERTEX
  5
28C
  8
STANDARD
 10
-7.519278023709647
 20
10.04521037140735
 30
0.0
  0
VERTEX
  5
28D
  8
STANDARD
 10
-9.188108021706258
 20
12.60516116910811
 30
0.0
  0
VERTEX
  5
28E
  8
STANDARD
 10
-8.30897137158362
 20
13.18179769180613
 30
0.0
  0
VERTEX
  5
28F
  8
STANDARD
 10
-8.040559655671842
 20
13.34476463039513
 30
0.0
  0
VERTEX
  5
290
  8
STANDARD
 10
-7.928310902620195
 20
13.4020304639561
 30
0.0
  0
VERTEX
  5
291
  8
STANDARD
 10
-7.830700219504711
 20
13.44315120702804
 30
0.0
  0
VERTEX
  5
292
  8
STANDARD
 10
-7.705201411869585
 20
13.48199788262433
 30
0.0
  0
VERTEX
  5
293
  8
STANDARD
 10
-7.581066261349108
 20
13.50530446960345
 30
0.0
  0
VERTEX
  5
294
  8
STANDARD
 10
-7.458294767943279
 20
13.5130709679654
 30
0.0
  0
VERTEX
  5
295
  8
STANDARD
 10
-7.336886931652098
 20
13.50529737771017
 30
0.0
  0
VERTEX
  5
296
  8
STANDARD
 10
-7.18262484535599
 20
13.47583746739593
 30
0.0
  0
VERTEX
  5
297
  8
STANDARD
 10
-7.033337781116147
 20
13.42613165818309
 30
0.0
  0
VERTEX
  5
298
  8
STANDARD
 10
-6.889025738932565
 20
13.35617995007165
 30
0.0
  0
VERTEX
  5
299
  8
STANDARD
 10
-6.749688718805247
 20
13.2659823430616
 30
0.0
  0
VERTEX
  5
29A
  8
STANDARD
 10
-6.616000536491168
 20
13.15681072568775
 30
0.0
  0
VERTEX
  5
29B
  8
STANDARD
 10
-6.488635007747304
 20
13.02993698648489
 30
0.0
  0
VERTEX
  5
29C
  8
STANDARD
 10
-6.367592132573654
 20
12.88536112545304
 30
0.0
  0
VERTEX
  5
29D
  8
STANDARD
 10
-6.252871910970219
 20
12.72308314259218
 30
0.0
  0
VERTEX
  5
29E
  8
STANDARD
 10
-6.16476613241938
 20
12.5786382020814
 30
0.0
  0
VERTEX
  5
29F
  8
STANDARD
 10
-6.090554260385848
 20
12.43692124086011
 30
0.0
  0
VERTEX
  5
2A0
  8
STANDARD
 10
-6.030236294869623
 20
12.29793225892831
 30
0.0
  0
VERTEX
  5
2A1
  8
STANDARD
 10
-5.983812235870707
 20
12.16167125628601
 30
0.0
  0
VERTEX
  5
2A2
  8
STANDARD
 10
-5.949894871847798
 20
12.03006085307492
 30
0.0
  0
VERTEX
  5
2A3
  8
STANDARD
 10
-5.927096991259596
 20
11.90502366943672
 30
0.0
  0
VERTEX
  5
2A4
  8
STANDARD
 10
-5.915418594106102
 20
11.78655970537144
 30
0.0
  0
VERTEX
  5
2A5
  8
STANDARD
 10
-5.914859680387313
 20
11.67466896087906
 30
0.0
  0
VERTEX
  5
2A6
  8
STANDARD
 10
-5.923673056012276
 20
11.56917310139888
 30
0.0
  0
VERTEX
  5
2A7
  8
STANDARD
 10
-5.94011152689003
 20
11.46989379237019
 30
0.0
  0
VERTEX
  5
2A8
  8
STANDARD
 10
-5.964175093020577
 20
11.376831033793
 30
0.0
  0
VERTEX
  5
2A9
  8
STANDARD
 10
-5.995863754403914
 20
11.2899848256673
 30
0.0
  0
VERTEX
  5
2AA
  8
STANDARD
 10
-6.036301045116538
 20
11.20667066846732
 30
0.0
  0
VERTEX
  5
2AB
  8
STANDARD
 10
-6.086610499234943
 20
11.12420406266731
 30
0.0
  0
VERTEX
  5
2AC
  8
STANDARD
 10
-6.146792116759132
 20
11.04258500826726
 30
0.0
  0
VERTEX
  5
2AD
  8
STANDARD
 10
-6.216845897689102
 20
10.96181350526716
 30
0.0
  0
VERTEX
  5
2AE
  8
STANDARD
 10
-6.296932964926803
 20
10.88201757834505
 30
0.0
  0
VERTEX
  5
2AF
  8
STANDARD
 10
-6.38721444137419
 20
10.80332525217895
 30
0.0
  0
VERTEX
  5
2B0
  8
STANDARD
 10
-6.598360621898013
 20
10.64925140211478
 30
0.0
  0
SEQEND
  5
2B1
  8
STANDARD
  0
POLYLINE
  5
48
  8
STANDARD
 66
     1
 10
0.0
 20
0.0
 30
0.0
 70
     1
  0
VERTEX
  5
2B2
  8
STANDARD
 10
-7.378485880926693
 20
10.5688252931889
 30
0.0
  0
VERTEX
  5
2B3
  8
STANDARD
 10
-6.833595244316028
 20
10.92622575181163
 30
0.0
  0
VERTEX
  5
2B4
  8
STANDARD
 10
-6.716103785343138
 20
11.00749657130883
 30
0.0
  0
VERTEX
  5
2B5
  8
STANDARD
 10
-6.61605478321216
 20
11.08574012724357
 30
0.0
  0
VERTEX
  5
2B6
  8
STANDARD
 10
-6.533448237923091
 20
11.16095641961585
 30
0.0
  0
VERTEX
  5
2B7
  8
STANDARD
 10
-6.468284149475933
 20
11.23314544842568
 30
0.0
  0
VERTEX
  5
2B8
  8
STANDARD
 10
-6.417051464414095
 20
11.30383113285113
 30
0.0
  0
VERTEX
  5
2B9
  8
STANDARD
 10
-6.376239129280991
 20
11.37453739207029
 30
0.0
  0
VERTEX
  5
2BA
  8
STANDARD
 10
-6.345847144076622
 20
11.44526422608317
 30
0.0
  0
VERTEX
  5
2BB
  8
STANDARD
 10
-6.325875508800987
 20
11.51601163488976
 30
0.0
  0
VERTEX
  5
2BC
  8
STANDARD
 10
-6.311786980476065
 20
11.61865743826659
 30
0.0
  0
VERTEX
  5
2BD
  8
STANDARD
 10
-6.311094487806507
 20
11.72731807133431
 30
0.0
  0
VERTEX
  5
2BE
  8
STANDARD
 10
-6.323798030792309
 20
11.84199353409292
 30
0.0
  0
VERTEX
  5
2BF
  8
STANDARD
 10
-6.349897609433476
 20
11.96268382654242
 30
0.0
  0
VERTEX
  5
2C0
  8
STANDARD
 10
-6.390405950565556
 20
12.08903629827416
 30
0.0
  0
VERTEX
  5
2C1
  8
STANDARD
 10
-6.4463357810241
 20
12.22069829887949
 30
0.0
  0
VERTEX
  5
2C2
  8
STANDARD
 10
-6.517687100809109
 20
12.35766982835843
 30
0.0
  0
VERTEX
  5
2C3
  8
STANDARD
 10
-6.604459909920583
 20
12.49995088671097
 30
0.0
  0
VERTEX
  5
2C4
  8
STANDARD
 10
-6.73600838041826
 20
12.68375421320088
 30
0.0
  0
VERTEX
  5
2C5
  8
STANDARD
 10
-6.868831895909093
 20
12.83353480421824
 30
0.0
  0
VERTEX
  5
2C6
  8
STANDARD
 10
-7.002930456393083
 20
12.94929265976306
 30
0.0
  0
VERTEX
  5
2C7
  8
STANDARD
 10
-7.138304061870231
 20
13.03102777983533
 30
0.0
  0
VERTEX
  5
2C8
  8
STANDARD
 10
-7.272052819942406
 20
13.08453735892424
 30
0.0
  0
VERTEX
  5
2C9
  8
STANDARD
 10
-7.401276838211478
 20
13.11561859151896
 30
0.0
  0
VERTEX
  5
2CA
  8
STANDARD
 10
-7.525976116677446
 20
13.1242714776195
 30
0.0
  0
VERTEX
  5
2CB
  8
STANDARD
 10
-7.64615065534031
 20
13.11049601722585
 30
0.0
  0
VERTEX
  5
2CC
  8
STANDARD
 10
-7.739321684129489
 20
13.08210299897725
 30
0.0
  0
VERTEX
  5
2CD
  8
STANDARD
 10
-7.848896645420551
 20
13.03360215328999
 30
0.0
  0
VERTEX
  5
2CE
  8
STANDARD
 10
-7.974875539213491
 20
12.96499348016406
 30
0.0
  0
VERTEX
  5
2CF
  8
STANDARD
 10
-8.11725836550831
 20
12.87627697959947
 30
0.0
  0
VERTEX
  5
2D0
  8
STANDARD
 10
-8.653444678850434
 20
12.52458579347871
 30
0.0
  0
SEQEND
  5
2D1
  8
STANDARD
  0
POLYLINE
  5
49
  8
STANDARD
 66
     1
 10
0.0
 20
0.0
 30
0.0
 70
     1
  0
VERTEX
  5
2D2
  8
STANDARD
 10
-4.788068485699676
 20
11.59994725444435
 30
0.0
  0
VERTEX
  5
2D3
  8
STANDARD
 10
-5.798028082160232
 20
14.48598056747158
 30
0.0
  0
VERTEX
  5
2D4
  8
STANDARD
 10
-5.417281109450571
 20
14.62004216804954
 30
0.0
  0
VERTEX
  5
2D5
  8
STANDARD
 10
-4.407321512990015
 20
11.73400885502231
 30
0.0
  0
SEQEND
  5
2D6
  8
STANDARD
  0
POLYLINE
  5
4A
  8
STANDARD
 66
     1
 10
0.0
 20
0.0
 30
0.0
 70
     1
  0
VERTEX
  5
2D7
  8
STANDARD
 10
-3.758976100769458
 20
12.05147943708259
 30
0.0
  0
VERTEX
  5
2D8
  8
STANDARD
 10
-4.314500903561855
 20
15.05896646791519
 30
0.0
  0
VERTEX
  5
2D9
  8
STANDARD
 10
-3.90750482115286
 20
15.13460710889419
 30
0.0
  0
VERTEX
  5
2DA
  8
STANDARD
 10
-1.896536890436118
 20
13.06601987334651
 30
0.0
  0
VERTEX
  5
2DB
  8
STANDARD
 10
-2.332695859067802
 20
15.42728697599884
 30
0.0
  0
VERTEX
  5
2DC
  8
STANDARD
 10
-1.952287460434269
 20
15.49798626857218
 30
0.0
  0
VERTEX
  5
2DD
  8
STANDARD
 10
-1.396762657641871
 20
12.49049923773958
 30
0.0
  0
VERTEX
  5
2DE
  8
STANDARD
 10
-1.803758740050867
 20
12.41485859676058
 30
0.0
  0
VERTEX
  5
2DF
  8
STANDARD
 10
-3.815105609923675
 20
14.48549732414375
 30
0.0
  0
VERTEX
  5
2E0
  8
STANDARD
 10
-3.378567702135925
 20
12.12217872965592
 30
0.0
  0
SEQEND
  5
2E1
  8
STANDARD
  0
POLYLINE
  5
4B
  8
STANDARD
 66
     1
 10
0.0
 20
0.0
 30
0.0
 70
     1
  0
VERTEX
  5
2E2
  8
STANDARD
 10
0.7517152909904272
 20
13.71906679788038
 30
0.0
  0
VERTEX
  5
2E3
  8
STANDARD
 10
0.764543846514596
 20
14.07769816046303
 30
0.0
  0
VERTEX
  5
2E4
  8
STANDARD
 10
2.055477348098705
 20
14.03332383132564
 30
0.0
  0
VERTEX
  5
2E5
  8
STANDARD
 10
2.014903312022263
 20
12.89904789385492
 30
0.0
  0
VERTEX
  5
2E6
  8
STANDARD
 10
1.861120646017707
 20
12.7929532902875
 30
0.0
  0
VERTEX
  5
2E7
  8
STANDARD
 10
1.705526221397482
 20
12.70166863135064
 30
0.0
  0
VERTEX
  5
2E8
  8
STANDARD
 10
1.548120038161589
 20
12.62519391704432
 30
0.0
  0
VERTEX
  5
2E9
  8
STANDARD
 10
1.388902096310028
 20
12.56352914736854
 30
0.0
  0
VERTEX
  5
2EA
  8
STANDARD
 10
1.228006974744689
 20
12.5167999630871
 30
0.0
  0
VERTEX
  5
2EB
  8
STANDARD
 10
1.06556925236746
 20
12.48513200496379
 30
0.0
  0
VERTEX
  5
2EC
  8
STANDARD
 10
0.9015889291783417
 20
12.46852527299861
 30
0.0
  0
VERTEX
  5
2ED
  8
STANDARD
 10
0.7360660051773338
 20
12.46697976719155
 30
0.0
  0
VERTEX
  5
2EE
  8
STANDARD
 10
0.5171317304233499
 20
12.48692925350723
 30
0.0
  0
VERTEX
  5
2EF
  8
STANDARD
 10
0.3093233120601699
 20
12.53061792281988
 30
0.0
  0
VERTEX
  5
2F0
  8
STANDARD
 10
0.1126407500877937
 20
12.59804577512949
 30
0.0
  0
VERTEX
  5
2F1
  8
STANDARD
 10
-0.0729159554937787
 20
12.68921281043606
 30
0.0
  0
VERTEX
  5
2F2
  8
STANDARD
 10
-0.160007236972581
 20
12.74331778872669
 30
0.0
  0
VERTEX
  5
2F3
  8
STANDARD
 10
-0.2412873040228173
 20
12.8025960967935
 30
0.0
  0
VERTEX
  5
2F4
  8
STANDARD
 10
-0.3167561566444878
 20
12.86704773463651
 30
0.0
  0
VERTEX
  5
2F5
  8
STANDARD
 10
-0.3864137948375922
 20
12.9366727022557
 30
0.0
  0
VERTEX
  5
2F6
  8
STANDARD
 10
-0.4502602186021307
 20
13.01147099965109
 30
0.0
  0
VERTEX
  5
2F7
  8
STANDARD
 10
-0.5082954279381033
 20
13.09144262682267
 30
0.0
  0
VERTEX
  5
2F8
  8
STANDARD
 10
-0.56051942284551
 20
13.17658758377045
 30
0.0
  0
VERTEX
  5
2F9
  8
STANDARD
 10
-0.6069322033243507
 20
13.26690587049441
 30
0.0
  0
VERTEX
  5
2FA
  8
STANDARD
 10
-0.6820628640979299
 20
13.45763792764613
 30
0.0
  0
VERTEX
  5
2FB
  8
STANDARD
 10
-0.7334261533604364
 20
13.65821429265305
 30
0.0
  0
VERTEX
  5
2FC
  8
STANDARD
 10
-0.7610220711118698
 20
13.86863496551517
 30
0.0
  0
VERTEX
  5
2FD
  8
STANDARD
 10
-0.7648506173522305
 20
14.08889994623249
 30
0.0
  0
VERTEX
  5
2FE
  8
STANDARD
 10
-0.745375312353522
 20
14.30786950097126
 30
0.0
  0
VERTEX
  5
2FF
  8
STANDARD
 10
-0.7029105071374666
 20
14.51857402802076
 30
0.0
  0
VERTEX
  5
300
  8
STANDARD
 10
-0.6374562017040647
 20
14.72101352738101
 30
0.0
  0
VERTEX
  5
301
  8
STANDARD
 10
-0.549012396053316
 20
14.915187999052
 30
0.0
  0
VERTEX
  5
302
  8
STANDARD
 10
-0.49660478417363
 20
15.00700590459976
 30
0.0
  0
VERTEX
  5
303
  8
STANDARD
 10
-0.4393205042939939
 20
15.0924176634167
 30
0.0
  0
VERTEX
  5
304
  8
STANDARD
 10
-0.3771595564144078
 20
15.17142327550281
 30
0.0
  0
VERTEX
  5
305
  8
STANDARD
 10
-0.3101219405348715
 20
15.24402274085809
 30
0.0
  0
VERTEX
  5
306
  8
STANDARD
 10
-0.2382076566553852
 20
15.31021605948255
 30
0.0
  0
VERTEX
  5
307
  8
STANDARD
 10
-0.1614167047759488
 20
15.37000323137617
 30
0.0
  0
VERTEX
  5
308
  8
STANDARD
 10
-0.0797490848965623
 20
15.42338425653897
 30
0.0
  0
VERTEX
  5
309
  8
STANDARD
 10
0.0067952029827743
 20
15.47035913497094
 30
0.0
  0
VERTEX
  5
30A
  8
STANDARD
 10
0.1909666937286968
 20
15.5459357793901
 30
0.0
  0
VERTEX
  5
30B
  8
STANDARD
 10
0.3875506784492174
 20
15.59757849238133
 30
0.0
  0
VERTEX
  5
30C
  8
STANDARD
 10
0.5965471571443361
 20
15.62528727394466
 30
0.0
  0
VERTEX
  5
30D
  8
STANDARD
 10
0.8179561298140532
 20
15.62906212408006
 30
0.0
  0
VERTEX
  5
30E
  8
STANDARD
 10
0.9790084664903441
 20
15.61654573122718
 30
0.0
  0
VERTEX
  5
30F
  8
STANDARD
 10
1.131655705510399
 20
15.59089195337166
 30
0.0
  0
VERTEX
  5
310
  8
STANDARD
 10
1.275897846874219
 20
15.55210079051348
 30
0.0
  0
VERTEX
  5
311
  8
STANDARD
 10
1.411734890581802
 20
15.50017224265266
 30
0.0
  0
VERTEX
  5
312
  8
STANDARD
 10
1.535970179492485
 20
15.43665668933289
 30
0.0
  0
VERTEX
  5
313
  8
STANDARD
 10
1.645407056465604
 20
15.36310451009789
 30
0.0
  0
VERTEX
  5
314
  8
STANDARD
 10
1.740045521501159
 20
15.27951570494765
 30
0.0
  0
VERTEX
  5
315
  8
STANDARD
 10
1.819885574599149
 20
15.18589027388217
 30
0.0
  0
VERTEX
  5
316
  8
STANDARD
 10
1.887518267841738
 20
15.0801124539207
 30
0.0
  0
VERTEX
  5
317
  8
STANDARD
 10
1.945534653311088
 20
14.96006648208247
 30
0.0
  0
VERTEX
  5
318
  8
STANDARD
 10
1.9939347310072
 20
14.8257523583675
 30
0.0
  0
VERTEX
  5
319
  8
STANDARD
 10
2.032718500930072
 20
14.67717008277577
 30
0.0
  0
VERTEX
  5
31A
  8
STANDARD
 10
1.665369823033119
 20
14.59017933397998
 30
0.0
  0
VERTEX
  5
31B
  8
STANDARD
 10
1.632945946576545
 20
14.70199707745666
 30
0.0
  0
VERTEX
  5
31C
  8
STANDARD
 10
1.595917206758955
 20
14.80145405224599
 30
0.0
  0
VERTEX
  5
31D
  8
STANDARD
 10
1.554283603580348
 20
14.88855025834794
 30
0.0
  0
VERTEX
  5
31E
  8
STANDARD
 10
1.508045137040723
 20
14.96328569576254
 30
0.0
  0
VERTEX
  5
31F
  8
STANDARD
 10
1.45392884033592
 20
15.02871406113026
 30
0.0
  0
VERTEX
  5
320
  8
STANDARD
 10
1.388661746661775
 20
15.08788905109159
 30
0.0
  0
VERTEX
  5
321
  8
STANDARD
 10
1.312243856018288
 20
15.14081066564653
 30
0.0
  0
VERTEX
  5
322
  8
STANDARD
 10
1.224675168405459
 20
15.18747890479507
 30
0.0
  0
VERTEX
  5
323
  8
STANDARD
 10
1.128753265797357
 20
15.22609678333099
 30
0.0
  0
VERTEX
  5
324
  8
STANDARD
 10
1.027275730168049
 20
15.25486731604807
 30
0.0
  0
VERTEX
  5
325
  8
STANDARD
 10
0.9202425615175345
 20
15.27379050294629
 30
0.0
  0
VERTEX
  5
326
  8
STANDARD
 10
0.8076537598458144
 20
15.28286634402567
 30
0.0
  0
VERTEX
  5
327
  8
STANDARD
 10
0.6739099185365938
 20
15.28239530983526
 30
0.0
  0
VERTEX
  5
328
  8
STANDARD
 10
0.5491425426854903
 20
15.27103196642431
 30
0.0
  0
VERTEX
  5
329
  8
STANDARD
 10
0.4333516322925042
 20
15.24877631379284
 30
0.0
  0
VERTEX
  5
32A
  8
STANDARD
 10
0.3265371873576352
 20
15.21562835194083
 30
0.0
  0
VERTEX
  5
32B
  8
STANDARD
 10
0.2289640070111796
 20
15.17353581650339
 30
0.0
  0
VERTEX
  5
32C
  8
STANDARD
 10
0.1408968903834334
 20
15.12444644311562
 30
0.0
  0
VERTEX
  5
32D
  8
STANDARD
 10
0.0623358374743966
 20
15.06836023177751
 30
0.0
  0
VERTEX
  5
32E
  8
STANDARD
 10
-0.0067191517159306
 20
15.00527718248906
 30
0.0
  0
VERTEX
  5
32F
  8
STANDARD
 10
-0.0676388989401546
 20
14.93687768762646
 30
0.0
  0
VERTEX
  5
330
  8
STANDARD
 10
-0.1217942259508814
 20
14.8648421395659
 30
0.0
  0
VERTEX
  5
331
  8
STANDARD
 10
-0.1691851327481113
 20
14.78917053830738
 30
0.0
  0
VERTEX
  5
332
  8
STANDARD
 10
-0.209811619331844
 20
14.70986288385089
 30
0.0
  0
VERTEX
  5
333
  8
STANDARD
 10
-0.2659181954646679
 20
14.56691404830566
 30
0.0
  0
VERTEX
  5
334
  8
STANDARD
 10
-0.3076884577591623
 20
14.41744695094723
 30
0.0
  0
VERTEX
  5
335
  8
STANDARD
 10
-0.3351224062153274
 20
14.26146159177562
 30
0.0
  0
VERTEX
  5
336
  8
STANDARD
 10
-0.3482200408331632
 20
14.09895797079081
 30
0.0
  0
VERTEX
  5
337
  8
STANDARD
 10
-0.3464615736061613
 20
13.90264614011597
 30
0.0
  0
VERTEX
  5
338
  8
STANDARD
 10
-0.3265675853976145
 20
13.72238359615075
 30
0.0
  0
VERTEX
  5
339
  8
STANDARD
 10
-0.2885380762075229
 20
13.55817033889516
 30
0.0
  0
VERTEX
  5
33A
  8
STANDARD
 10
-0.2323730460358865
 20
13.41000636834918
 30
0.0
  0
VERTEX
  5
33B
  8
STANDARD
 10
-0.1588333529033275
 20
13.27844100621855
 30
0.0
  0
VERTEX
  5
33C
  8
STANDARD
 10
-0.0686798548304685
 20
13.16402357420898
 30
0.0
  0
VERTEX
  5
33D
  8
STANDARD
 10
0.0380874481826904
 20
13.06675407232047
 30
0.0
  0
VERTEX
  5
33E
  8
STANDARD
 10
0.1614685561361493
 20
12.98663250055302
 30
0.0
  0
VERTEX
  5
33F
  8
STANDARD
 10
0.2955335828654071
 20
12.92335034425131
 30
0.0
  0
VERTEX
  5
340
  8
STANDARD
 10
0.4343526422059629
 20
12.87659908876002
 30
0.0
  0
VERTEX
  5
341
  8
STANDARD
 10
0.5779257341578166
 20
12.84637873407914
 30
0.0
  0
VERTEX
  5
342
  8
STANDARD
 10
0.7262528587209682
 20
12.83268928020868
 30
0.0
  0
VERTEX
  5
343
  8
STANDARD
 10
0.8566561409094928
 20
12.83432441992132
 30
0.0
  0
VERTEX
  5
344
  8
STANDARD
 10
0.9859525840341168
 20
12.84865638301264
 30
0.0
  0
VERTEX
  5
345
  8
STANDARD
 10
1.11414218809484
 20
12.87568516948265
 30
0.0
  0
VERTEX
  5
346
  8
STANDARD
 10
1.241224953091662
 20
12.91541077933134
 30
0.0
  0
VERTEX
  5
347
  8
STANDARD
 10
1.360249391517057
 20
12.96260305913012
 30
0.0
  0
VERTEX
  5
348
  8
STANDARD
 10
1.464264015863499
 20
13.01203185545042
 30
0.0
  0
VERTEX
  5
349
  8
STANDARD
 10
1.553268826130987
 20
13.06369716829224
 30
0.0
  0
VERTEX
  5
34A
  8
STANDARD
 10
1.627263822319522
 20
13.11759899765558
 30
0.0
  0
VERTEX
  5
34B
  8
STANDARD
 10
1.647625424982883
 20
13.68682203245246
 30
0.0
  0
SEQEND
  5
34C
  8
STANDARD
  0
POLYLINE
  5
4C
  8
STANDARD
 66
     1
 10
0.0
 20
0.0
 30
0.0
 70
     1
  0
VERTEX
  5
34D
  8
STANDARD
 10
3.768706093846598
 20
12.03588332133418
 30
0.0
  0
VERTEX
  5
34E
  8
STANDARD
 10
5.003690278975507
 20
14.83247248830836
 30
0.0
  0
VERTEX
  5
34F
  8
STANDARD
 10
6.884558427107157
 20
13.99676102780605
 30
0.0
  0
VERTEX
  5
350
  8
STANDARD
 10
6.738820184250881
 20
13.66674061451374
 30
0.0
  0
VERTEX
  5
351
  8
STANDARD
 10
5.226898872052032
 20
14.33852080773854
 30
0.0
  0
VERTEX
  5
352
  8
STANDARD
 10
4.844441286752902
 20
13.47245567690207
 30
0.0
  0
VERTEX
  5
353
  8
STANDARD
 10
6.152871302844485
 20
12.89109118263959
 30
0.0
  0
VERTEX
  5
354
  8
STANDARD
 10
6.007133059988208
 20
12.56107076934728
 30
0.0
  0
VERTEX
  5
355
  8
STANDARD
 10
4.698703043896625
 20
13.14243526360975
 30
0.0
  0
VERTEX
  5
356
  8
STANDARD
 10
4.137652929779399
 20
11.87195205405668
 30
0.0
  0
SEQEND
  5
357
  8
STANDARD
  0
POLYLINE
  5
4D
  8
STANDARD
 66
     1
 10
0.0
 20
0.0
 30
0.0
 70
     1
  0
VERTEX
  5
358
  8
STANDARD
 10
6.126586300743089
 20
10.95869397172104
 30
0.0
  0
VERTEX
  5
359
  8
STANDARD
 10
7.795416298739691
 20
13.51864476942181
 30
0.0
  0
VERTEX
  5
35A
  8
STANDARD
 10
9.64073283167038
 20
12.30827899900618
 30
0.0
  0
VERTEX
  5
35B
  8
STANDARD
 10
9.443797231633948
 20
12.0061838503007
 30
0.0
  0
VERTEX
  5
35C
  8
STANDARD
 10
7.936208441522647
 20
12.99502984764026
 30
0.0
  0
VERTEX
  5
35D
  8
STANDARD
 10
7.425086566283579
 20
12.21097943279193
 30
0.0
  0
VERTEX
  5
35E
  8
STANDARD
 10
8.836927800440927
 20
11.28493543297393
 30
0.0
  0
VERTEX
  5
35F
  8
STANDARD
 10
8.641130556474067
 20
10.98458649900086
 30
0.0
  0
VERTEX
  5
360
  8
STANDARD
 10
7.22928932231672
 20
11.91063049881886
 30
0.0
  0
VERTEX
  5
361
  8
STANDARD
 10
6.661249643598913
 20
11.03926934735045
 30
0.0
  0
VERTEX
  5
362
  8
STANDARD
 10
8.228027831936291
 20
10.01160029699755
 30
0.0
  0
VERTEX
  5
363
  8
STANDARD
 10
8.031092231899857
 20
9.709505148292074
 30
0.0
  0
SEQEND
  5
364
  8
STANDARD
  0
POLYLINE
  5
4E
  8
STANDARD
 66
     1
 10
0.0
 20
0.0
 30
0.0
 70
     1
  0
VERTEX
  5
365
  8
STANDARD
 10
8.444711707682877
 20
9.306194607301627
 30
0.0
  0
VERTEX
  5
366
  8
STANDARD
 10
10.68828244440143
 20
11.3776408963987
 30
0.0
  0
VERTEX
  5
367
  8
STANDARD
 10
12.18146508204507
 20
9.750428282477406
 30
0.0
  0
VERTEX
  5
368
  8
STANDARD
 10
11.91670537027678
 20
9.505980664459813
 30
0.0
  0
VERTEX
  5
369
  8
STANDARD
 10
10.69680332857924
 20
10.83538266790872
 30
0.0
  0
VERTEX
  5
36A
  8
STANDARD
 10
10.00965240034825
 20
10.2009492546723
 30
0.0
  0
VERTEX
  5
36B
  8
STANDARD
 10
11.1520779844322
 20
8.955978094398557
 30
0.0
  0
VERTEX
  5
36C
  8
STANDARD
 10
10.88884867562211
 20
8.712943468392623
 30
0.0
  0
VERTEX
  5
36D
  8
STANDARD
 10
9.746423091538166
 20
9.95791462866637
 30
0.0
  0
VERTEX
  5
36E
  8
STANDARD
 10
8.982752015397265
 20
9.252831614846833
 30
0.0
  0
VERTEX
  5
36F
  8
STANDARD
 10
10.25054859452865
 20
7.87123599925328
 30
0.0
  0
VERTEX
  5
370
  8
STANDARD
 10
9.985788882760364
 20
7.626788381235685
 30
0.0
  0
SEQEND
  5
371
  8
STANDARD
  0
POLYLINE
  5
4F
  8
STANDARD
 66
     1
 10
0.0
 20
0.0
 30
0.0
 70
     1
  0
VERTEX
  5
372
  8
STANDARD
 10
10.33467733974469
 20
7.177759905175408
 30
0.0
  0
VERTEX
  5
373
  8
STANDARD
 10
13.01423084106872
 20
8.63765010392258
 30
0.0
  0
VERTEX
  5
374
  8
STANDARD
 10
13.5155853905492
 20
7.71177484086902
 30
0.0
  0
VERTEX
  5
375
  8
STANDARD
 10
13.65565122407955
 20
7.430159204481688
 30
0.0
  0
VERTEX
  5
376
  8
STANDARD
 10
13.70340931605017
 20
7.313275307485878
 30
0.0
  0
VERTEX
  5
377
  8
STANDARD
 10
13.73631752482442
 20
7.212340691288636
 30
0.0
  0
VERTEX
  5
378
  8
STANDARD
 10
13.76469469207186
 20
7.083710409500823
 30
0.0
  0
VERTEX
  5
379
  8
STANDARD
 10
13.77774192607554
 20
6.957709163438851
 30
0.0
  0
VERTEX
  5
37A
  8
STANDARD
 10
13.77545922683544
 20
6.834336953102717
 30
0.0
  0
VERTEX
  5
37B
  8
STANDARD
 10
13.75784659435159
 20
6.713593778492424
 30
0.0
  0
VERTEX
  5
37C
  8
STANDARD
 10
13.71600995504287
 20
6.561771219893643
 30
0.0
  0
VERTEX
  5
37D
  8
STANDARD
 10
13.65446172111449
 20
6.416571410683602
 30
0.0
  0
VERTEX
  5
37E
  8
STANDARD
 10
13.57320189256645
 20
6.277994350862299
 30
0.0
  0
VERTEX
  5
37F
  8
STANDARD
 10
13.47223046939875
 20
6.146040040429735
 30
0.0
  0
VERTEX
  5
380
  8
STANDARD
 10
13.35286611233274
 20
6.02127852559152
 30
0.0
  0
VERTEX
  5
381
  8
STANDARD
 10
13.21642748208977
 20
5.904279852553266
 30
0.0
  0
VERTEX
  5
382
  8
STANDARD
 10
13.06291457866984
 20
5.795044021314973
 30
0.0
  0
VERTEX
  5
383
  8
STANDARD
 10
12.89232740207295
 20
5.693571031876641
 30
0.0
  0
VERTEX
  5
384
  8
STANDARD
 10
12.74162729455376
 20
5.617253086324746
 30
0.0
  0
VERTEX
  5
385
  8
STANDARD
 10
12.59476942405698
 20
5.554603249117065
 30
0.0
  0
VERTEX
  5
386
  8
STANDARD
 10
12.45175379058261
 20
5.5056215202536
 30
0.0
  0
VERTEX
  5
387
  8
STANDARD
 10
12.31258039413066
 20
5.470307899734349
 30
0.0
  0
VERTEX
  5
388
  8
STANDARD
 10
12.17904660820771
 20
5.447118939559061
 30
0.0
  0
VERTEX
  5
389
  8
STANDARD
 10
12.05294980632038
 20
5.434511191727484
 30
0.0
  0
VERTEX
  5
38A
  8
STANDARD
 10
11.93428998846865
 20
5.432484656239615
 30
0.0
  0
VERTEX
  5
38B
  8
STANDARD
 10
11.82306715465253
 20
5.441039333095457
 30
0.0
  0
VERTEX
  5
38C
  8
STANDARD
 10
11.71896179931164
 20
5.458443006880742
 30
0.0
  0
VERTEX
  5
38D
  8
STANDARD
 10
11.6216544168856
 20
5.482963462181202
 30
0.0
  0
VERTEX
  5
38E
  8
STANDARD
 10
11.5311450073744
 20
5.51460069899684
 30
0.0
  0
VERTEX
  5
38F
  8
STANDARD
 10
11.44743357077804
 20
5.553354717327653
 30
0.0
  0
VERTEX
  5
390
  8
STANDARD
 10
11.36794423567656
 20
5.600567410833369
 30
0.0
  0
VERTEX
  5
391
  8
STANDARD
 10
11.29010113064998
 20
5.657580673173713
 30
0.0
  0
VERTEX
  5
392
  8
STANDARD
 10
11.2139042556983
 20
5.724394504348687
 30
0.0
  0
VERTEX
  5
393
  8
STANDARD
 10
11.13935361082152
 20
5.801008904358291
 30
0.0
  0
VERTEX
  5
394
  8
STANDARD
 10
11.0665895277714
 20
5.887574526744979
 30
0.0
  0
VERTEX
  5
395
  8
STANDARD
 10
10.9957523382997
 20
5.984242025051205
 30
0.0
  0
VERTEX
  5
396
  8
STANDARD
 10
10.85985864009157
 20
6.207882649422272
 30
0.0
  0
SEQEND
  5
397
  8
STANDARD
  0
POLYLINE
  5
50
  8
STANDARD
 66
     1
 10
0.0
 20
0.0
 30
0.0
 70
     1
  0
VERTEX
  5
398
  8
STANDARD
 10
10.84348615599369
 20
6.994356124293992
 30
0.0
  0
VERTEX
  5
399
  8
STANDARD
 10
11.15422669854297
 20
6.420496802837033
 30
0.0
  0
VERTEX
  5
39A
  8
STANDARD
 10
11.2254097008915
 20
6.296416366283304
 30
0.0
  0
VERTEX
  5
39B
  8
STANDARD
 10
11.29500542145258
 20
6.190020429182048
 30
0.0
  0
VERTEX
  5
39C
  8
STANDARD
 10
11.36301386022621
 20
6.101308991533267
 30
0.0
  0
VERTEX
  5
39D
  8
STANDARD
 10
11.4294350172124
 20
6.030282053336959
 30
0.0
  0
VERTEX
  5
39E
  8
STANDARD
 10
11.49549712126903
 20
5.973305349832367
 30
0.0
  0
VERTEX
  5
39F
  8
STANDARD
 10
11.56242840125399
 20
5.926744616258738
 30
0.0
  0
VERTEX
  5
3A0
  8
STANDARD
 10
11.63022885716729
 20
5.890599852616068
 30
0.0
  0
VERTEX
  5
3A1
  8
STANDARD
 10
11.69889848900891
 20
5.86487105890436
 30
0.0
  0
VERTEX
  5
3A2
  8
STANDARD
 10
11.79974230211053
 20
5.842425737030226
 30
0.0
  0
VERTEX
  5
3A3
  8
STANDARD
 10
11.90765369379908
 20
5.83288306950945
 30
0.0
  0
VERTEX
  5
3A4
  8
STANDARD
 10
12.02263266407456
 20
5.836243056342028
 30
0.0
  0
VERTEX
  5
3A5
  8
STANDARD
 10
12.14467921293697
 20
5.852505697527963
 30
0.0
  0
VERTEX
  5
3A6
  8
STANDARD
 10
12.27352542463252
 20
5.882712180289999
 30
0.0
  0
VERTEX
  5
3A7
  8
STANDARD
 10
12.40890338340744
 20
5.927903691850879
 30
0.0
  0
VERTEX
  5
3A8
  8
STANDARD
 10
12.55081308926172
 20
5.988080232210604
 30
0.0
  0
VERTEX
  5
3A9
  8
STANDARD
 10
12.69925454219536
 20
6.063241801369173
 30
0.0
  0
VERTEX
  5
3AA
  8
STANDARD
 10
12.8926004657738
 20
6.17978544405236
 30
0.0
  0
VERTEX
  5
3AB
  8
STANDARD
 10
13.05224444025773
 20
6.300374935736405
 30
0.0
  0
VERTEX
  5
3AC
  8
STANDARD
 10
13.17818646564714
 20
6.425010276421308
 30
0.0
  0
VERTEX
  5
3AD
  8
STANDARD
 10
13.27042654194205
 20
6.553691466107067
 30
0.0
  0
VERTEX
  5
3AE
  8
STANDARD
 10
13.33448870496468
 20
6.683047186338301
 30
0.0
  0
VERTEX
  5
3AF
  8
STANDARD
 10
13.37589699053726
 20
6.809706118659624
 30
0.0
  0
VERTEX
  5
3B0
  8
STANDARD
 10
13.3946513986598
 20
6.933668263071036
 30
0.0
  0
VERTEX
  5
3B1
  8
STANDARD
 10
13.39075192933229
 20
7.05493361957254
 30
0.0
  0
VERTEX
  5
3B2
  8
STANDARD
 10
13.37012868366121
 20
7.150393066719403
 30
0.0
  0
VERTEX
  5
3B3
  8
STANDARD
 10
13.33086191353969
 20
7.263889961925654
 30
0.0
  0
VERTEX
  5
3B4
  8
STANDARD
 10
13.27295161896772
 20
7.395424305191291
 30
0.0
  0
VERTEX
  5
3B5
  8
STANDARD
 10
13.1963977999453
 20
7.544996096516316
 30
0.0
  0
VERTEX
  5
3B6
  8
STANDARD
 10
12.89062116382651
 20
8.109688336160863
 30
0.0
  0
SEQEND
  5
3B7
  8
STANDARD
  0
POLYLINE
  5
51
  8
STANDARD
 66
     1
 10
0.0
 20
0.0
 30
0.0
 70
     1
  0
VERTEX
  5
3B8
  8
STANDARD
 10
-13.77848475095231
 20
-4.085105366899174
 30
0.0
  0
VERTEX
  5
3B9
  8
STANDARD
 10
-13.64101214842641
 20
-4.389955754346563
 30
0.0
  0
VERTEX
  5
3BA
  8
STANDARD
 10
-13.72580940181488
 20
-4.436522622136333
 30
0.0
  0
VERTEX
  5
3BB
  8
STANDARD
 10
-13.79955348552186
 20
-4.487522301505601
 30
0.0
  0
VERTEX
  5
3BC
  8
STANDARD
 10
-13.86224439954735
 20
-4.542954792454368
 30
0.0
  0
VERTEX
  5
3BD
  8
STANDARD
 10
-13.91388214389135
 20
-4.602820094982635
 30
0.0
  0
VERTEX
  5
3BE
  8
STANDARD
 10
-13.95512866182392
 20
-4.669522928116816
 30
0.0
  0
VERTEX
  5
3BF
  8
STANDARD
 10
-13.98664589661515
 20
-4.745468010883325
 30
0.0
  0
VERTEX
  5
3C0
  8
STANDARD
 10
-14.00843384826503
 20
-4.830655343282166
 30
0.0
  0
VERTEX
  5
3C1
  8
STANDARD
 10
-14.02049251677357
 20
-4.925084925313334
 30
0.0
  0
VERTEX
  5
3C2
  8
STANDARD
 10
-14.02208871829983
 20
-5.025180806599156
 30
0.0
  0
VERTEX
  5
3C3
  8
STANDARD
 10
-14.01248926900288
 20
-5.127367036761955
 30
0.0
  0
VERTEX
  5
3C4
  8
STANDARD
 10
-13.99169416888273
 20
-5.23164361580173
 30
0.0
  0
VERTEX
  5
3C5
  8
STANDARD
 10
-13.95970341793937
 20
-5.338010543718479
 30
0.0
  0
VERTEX
  5
3C6
  8
STANDARD
 10
-13.92376832574002
 20
-5.429355540822879
 30
0.0
  0
VERTEX
  5
3C7
  8
STANDARD
 10
-13.88272036074836
 20
-5.512626638353177
 30
0.0
  0
VERTEX
  5
3C8
  8
STANDARD
 10
-13.8365595229644
 20
-5.58782383630937
 30
0.0
  0
VERTEX
  5
3C9
  8
STANDARD
 10
-13.78528581238814
 20
-5.654947134691462
 30
0.0
  0
VERTEX
  5
3CA
  8
STANDARD
 10
-13.73046723470402
 20
-5.712437306513367
 30
0.0
  0
VERTEX
  5
3CB
  8
STANDARD
 10
-13.67367179559649
 20
-5.758735124789006
 30
0.0
  0
VERTEX
  5
3CC
  8
STANDARD
 10
-13.61489949506555
 20
-5.793840589518375
 30
0.0
  0
VERTEX
  5
3CD
  8
STANDARD
 10
-13.5541503331112
 20
-5.817753700701478
 30
0.0
  0
VERTEX
  5
3CE
  8
STANDARD
 10
-13.49284829474253
 20
-5.831217139869127
 30
0.0
  0
VERTEX
  5
3CF
  8
STANDARD
 10
-13.43241736496863
 20
-5.834973588552135
 30
0.0
  0
VERTEX
  5
3D0
  8
STANDARD
 10
-13.37285754378948
 20
-5.829023046750502
 30
0.0
  0
VERTEX
  5
3D1
  8
STANDARD
 10
-13.31416883120511
 20
-5.813365514464231
 30
0.0
  0
VERTEX
  5
3D2
  8
STANDARD
 10
-13.2584365045821
 20
-5.788916191741285
 30
0.0
  0
VERTEX
  5
3D3
  8
STANDARD
 10
-13.20945916947199
 20
-5.75719354414518
 30
0.0
  0
VERTEX
  5
3D4
  8
STANDARD
 10
-13.16723682587476
 20
-5.718197571675915
 30
0.0
  0
VERTEX
  5
3D5
  8
STANDARD
 10
-13.13176947379043
 20
-5.671928274333488
 30
0.0
  0
VERTEX
  5
3D6
  8
STANDARD
 10
-13.10340109312369
 20
-5.617059002794916
 30
0.0
  0
VERTEX
  5
3D7
  8
STANDARD
 10
-13.08247566377925
 20
-5.552263107737215
 30
0.0
  0
VERTEX
  5
3D8
  8
STANDARD
 10
-13.0689931857571
 20
-5.477540589160384
 30
0.0
  0
VERTEX
  5
3D9
  8
STANDARD
 10
-13.06295365905725
 20
-5.392891447064424
 30
0.0
  0
VERTEX
  5
3DA
  8
STANDARD
 10
-13.06960892537959
 20
-5.212333775374695
 30
0.0
  0
VERTEX
  5
3DB
  8
STANDARD
 10
-13.09742058869438
 20
-4.901205023267351
 30
0.0
  0
VERTEX
  5
3DC
  8
STANDARD
 10
-13.11997340580385
 20
-4.577607678575011
 30
0.0
  0
VERTEX
  5
3DD
  8
STANDARD
 10
-13.11937203083242
 20
-4.455421716946701
 30
0.0
  0
VERTEX
  5
3DE
  8
STANDARD
 10
-13.11085213351022
 20
-4.359644229130297
 30
0.0
  0
VERTEX
  5
3DF
  8
STANDARD
 10
-13.09046132392207
 20
-4.25757565044024
 30
0.0
  0
VERTEX
  5
3E0
  8
STANDARD
 10
-13.06037313705141
 20
-4.165001849681945
 30
0.0
  0
VERTEX
  5
3E1
  8
STANDARD
 10
-13.02058757289826
 20
-4.081922826855411
 30
0.0
  0
VERTEX
  5
3E2
  8
STANDARD
 10
-12.9711046314626
 20
-4.00833858196064
 30
0.0
  0
VERTEX
  5
3E3
  8
STANDARD
 10
-12.91274907097806
 20
-3.944298219455971
 30
0.0
  0
VERTEX
  5
3E4
  8
STANDARD
 10
-12.84634564967823
 20
-3.889850843799747
 30
0.0
  0
VERTEX
  5
3E5
  8
STANDARD
 10
-12.77189436756312
 20
-3.844996454991966
 30
0.0
  0
VERTEX
  5
3E6
  8
STANDARD
 10
-12.68939522463272
 20
-3.80973505303263
 30
0.0
  0
VERTEX
  5
3E7
  8
STANDARD
 10
-12.59349013372734
 20
-3.783567488741626
 30
0.0
  0
VERTEX
  5
3E8
  8
STANDARD
 10
-12.49595428953639
 20
-3.772027268094311
 30
0.0
  0
VERTEX
  5
3E9
  8
STANDARD
 10
-12.39678769205987
 20
-3.775114391090685
 30
0.0
  0
VERTEX
  5
3EA
  8
STANDARD
 10
-12.29599034129777
 20
-3.792828857730746
 30
0.0
  0
VERTEX
  5
3EB
  8
STANDARD
 10
-12.1971768365017
 20
-3.825840138533814
 30
0.0
  0
VERTEX
  5
3EC
  8
STANDARD
 10
-12.10396177692325
 20
-3.874817704019206
 30
0.0
  0
VERTEX
  5
3ED
  8
STANDARD
 10
-12.01634516256243
 20
-3.939761554186921
 30
0.0
  0
VERTEX
  5
3EE
  8
STANDARD
 10
-11.93432699341922
 20
-4.02067168903696
 30
0.0
  0
VERTEX
  5
3EF
  8
STANDARD
 10
-11.8594473059011
 20
-4.114350297727835
 30
0.0
  0
VERTEX
  5
3F0
  8
STANDARD
 10
-11.7932461364155
 20
-4.217599569418062
 30
0.0
  0
VERTEX
  5
3F1
  8
STANDARD
 10
-11.73572348496244
 20
-4.330419504107638
 30
0.0
  0
VERTEX
  5
3F2
  8
STANDARD
 10
-11.6868793515419
 20
-4.452810101796566
 30
0.0
  0
VERTEX
  5
3F3
  8
STANDARD
 10
-11.64493286627144
 20
-4.590719582300009
 30
0.0
  0
VERTEX
  5
3F4
  8
STANDARD
 10
-11.6171244175938
 20
-4.724317260867874
 30
0.0
  0
VERTEX
  5
3F5
  8
STANDARD
 10
-11.60345400550897
 20
-4.853603137500161
 30
0.0
  0
VERTEX
  5
3F6
  8
STANDARD
 10
-11.60392163001695
 20
-4.97857721219687
 30
0.0
  0
VERTEX
  5
3F7
  8
STANDARD
 10
-11.61892022503383
 20
-5.097085542729089
 30
0.0
  0
VERTEX
  5
3F8
  8
STANDARD
 10
-11.64884272447566
 20
-5.206974186867901
 30
0.0
  0
VERTEX
  5
3F9
  8
STANDARD
 10
-11.69368912834245
 20
-5.308243144613306
 30
0.0
  0
VERTEX
  5
3FA
  8
STANDARD
 10
-11.7534594366342
 20
-5.400892415965305
 30
0.0
  0
VERTEX
  5
3FB
  8
STANDARD
 10
-11.82591343018448
 20
-5.48359030433206
 30
0.0
  0
VERTEX
  5
3FC
  8
STANDARD
 10
-11.90881088982685
 20
-5.555005113121737
 30
0.0
  0
VERTEX
  5
3FD
  8
STANDARD
 10
-12.00215181556131
 20
-5.615136842334335
 30
0.0
  0
VERTEX
  5
3FE
  8
STANDARD
 10
-12.10593620738787
 20
-5.663985491969854
 30
0.0
  0
VERTEX
  5
3FF
  8
STANDARD
 10
-12.24178640520899
 20
-5.352772792578319
 30
0.0
  0
VERTEX
  5
400
  8
STANDARD
 10
-12.13718995351548
 20
-5.292840300087861
 30
0.0
  0
VERTEX
  5
401
  8
STANDARD
 10
-12.05253195781248
 20
-5.222675633842752
 30
0.0
  0
VERTEX
  5
402
  8
STANDARD
 10
-11.98781241809999
 20
-5.142278793842992
 30
0.0
  0
VERTEX
  5
403
  8
STANDARD
 10
-11.943031334378
 20
-5.051649780088581
 30
0.0
  0
VERTEX
  5
404
  8
STANDARD
 10
-11.9189234300211
 20
-4.949720171737775
 30
0.0
  0
VERTEX
  5
405
  8
STANDARD
 10
-11.91622342840386
 20
-4.835421547948834
 30
0.0
  0
VERTEX
  5
406
  8
STANDARD
 10
-11.93493132952628
 20
-4.708753908721756
 30
0.0
  0
VERTEX
  5
407
  8
STANDARD
 10
-11.97504713338835
 20
-4.569717254056542
 30
0.0
  0
VERTEX
  5
408
  8
STANDARD
 10
-12.03128899409966
 20
-4.431170783824839
 30
0.0
  0
VERTEX
  5
409
  8
STANDARD
 10
-12.09416514521802
 20
-4.318003853362083
 30
0.0
  0
VERTEX
  5
40A
  8
STANDARD
 10
-12.16367558674343
 20
-4.230216462668274
 30
0.0
  0
VERTEX
  5
40B
  8
STANDARD
 10
-12.2398203186759
 20
-4.167808611743412
 30
0.0
  0
VERTEX
  5
40C
  8
STANDARD
 10
-12.31909401522157
 20
-4.127736363452746
 30
0.0
  0
VERTEX
  5
40D
  8
STANDARD
 10
-12.39799135058662
 20
-4.106955780661519
 30
0.0
  0
VERTEX
  5
40E
  8
STANDARD
 10
-12.47651232477105
 20
-4.105466863369736
 30
0.0
  0
VERTEX
  5
40F
  8
STANDARD
 10
-12.55465693777484
 20
-4.123269611577395
 30
0.0
  0
VERTEX
  5
410
  8
STANDARD
 10
-12.61719252790302
 20
-4.152165374623536
 30
0.0
  0
VERTEX
  5
411
  8
STANDARD
 10
-12.66944637167954
 20
-4.19119468803376
 30
0.0
  0
VERTEX
  5
412
  8
STANDARD
 10
-12.71141846910441
 20
-4.240357551808067
 30
0.0
  0
VERTEX
  5
413
  8
STANDARD
 10
-12.74310882017762
 20
-4.299653965946458
 30
0.0
  0
VERTEX
  5
414
  8
STANDARD
 10
-12.76344197618267
 20
-4.382640003159974
 30
0.0
  0
VERTEX
  5
415
  8
STANDARD
 10
-12.77074107118136
 20
-4.504590329797339
 30
0.0
  0
VERTEX
  5
416
  8
STANDARD
 10
-12.7650061051737
 20
-4.665504945858554
 30
0.0
  0
VERTEX
  5
417
  8
STANDARD
 10
-12.74623707815968
 20
-4.865383851343617
 30
0.0
  0
VERTEX
  5
418
  8
STANDARD
 10
-12.71221009485606
 20
-5.238267141823612
 30
0.0
  0
VERTEX
  5
419
  8
STANDARD
 10
-12.70760545200232
 20
-5.375329679628122
 30
0.0
  0
VERTEX
  5
41A
  8
STANDARD
 10
-12.71127337501397
 20
-5.479472812475642
 30
0.0
  0
VERTEX
  5
41B
  8
STANDARD
 10
-12.72921740376121
 20
-5.601250206121969
 30
0.0
  0
VERTEX
  5
41C
  8
STANDARD
 10
-12.75894453146811
 20
-5.711009736020159
 30
0.0
  0
VERTEX
  5
41D
  8
STANDARD
 10
-12.80045475813466
 20
-5.808751402170214
 30
0.0
  0
VERTEX
  5
41E
  8
STANDARD
 10
-12.85374808376086
 20
-5.894475204572132
 30
0.0
  0
VERTEX
  5
41F
  8
STANDARD
 10
-12.91817064484236
 20
-5.968674799461159
 30
0.0
  0
VERTEX
  5
420
  8
STANDARD
 10
-12.9930685778748
 20
-6.031843843072538
 30
0.0
  0
VERTEX
  5
421
  8
STANDARD
 10
-13.07844188285817
 20
-6.083982335406271
 30
0.0
  0
VERTEX
  5
422
  8
STANDARD
 10
-13.17429055979249
 20
-6.125090276462355
 30
0.0
  0
VERTEX
  5
423
  8
STANDARD
 10
-13.27559307256958
 20
-6.152675692985301
 30
0.0
  0
VERTEX
  5
424
  8
STANDARD
 10
-13.37904121326619
 20
-6.164849877235159
 30
0.0
  0
VERTEX
  5
425
  8
STANDARD
 10
-13.48463498188234
 20
-6.161612829211929
 30
0.0
  0
VERTEX
  5
426
  8
STANDARD
 10
-13.59237437841801
 20
-6.142964548915613
 30
0.0
  0
VERTEX
  5
427
  8
STANDARD
 10
-13.69845970209859
 20
-6.108592656137774
 30
0.0
  0
VERTEX
  5
428
  8
STANDARD
 10
-13.79909125214945
 20
-6.058184770669978
 30
0.0
  0
VERTEX
  5
429
  8
STANDARD
 10
-13.8942690285706
 20
-5.991740892512225
 30
0.0
  0
VERTEX
  5
42A
  8
STANDARD
 10
-13.98399303136205
 20
-5.909261021664515
 30
0.0
  0
VERTEX
  5
42B
  8
STANDARD
 10
-14.06601691432929
 20
-5.81321168780114
 30
0.0
  0
VERTEX
  5
42C
  8
STANDARD
 10
-14.13809433127784
 20
-5.706059420596392
 30
0.0
  0
VERTEX
  5
42D
  8
STANDARD
 10
-14.2002252822077
 20
-5.587804220050272
 30
0.0
  0
VERTEX
  5
42E
  8
STANDARD
 10
-14.25240976711888
 20
-5.458446086162779
 30
0.0
  0
VERTEX
  5
42F
  8
STANDARD
 10
-14.30361550283077
 20
-5.292187262321296
 30
0.0
  0
VERTEX
  5
430
  8
STANDARD
 10
-14.33755068285226
 20
-5.135410924695922
 30
0.0
  0
VERTEX
  5
431
  8
STANDARD
 10
-14.35421530718336
 20
-4.988117073286661
 30
0.0
  0
VERTEX
  5
432
  8
STANDARD
 10
-14.35360937582406
 20
-4.850305708093511
 30
0.0
  0
VERTEX
  5
433
  8
STANDARD
 10
-14.33592367301489
 20
-4.721259798403802
 30
0.0
  0
VERTEX
  5
434
  8
STANDARD
 10
-14.30134898299638
 20
-4.600262313504865
 30
0.0
  0
VERTEX
  5
435
  8
STANDARD
 10
-14.24988530576852
 20
-4.4873132533967
 30
0.0
  0
VERTEX
  5
436
  8
STANDARD
 10
-14.18153264133133
 20
-4.382412618079306
 30
0.0
  0
VERTEX
  5
437
  8
STANDARD
 10
-14.09874427965124
 20
-4.288173597689043
 30
0.0
  0
VERTEX
  5
438
  8
STANDARD
 10
-14.00397351069471
 20
-4.207209382362265
 30
0.0
  0
VERTEX
  5
439
  8
STANDARD
 10
-13.89722033446173
 20
-4.139519972098975
 30
0.0
  0
SEQEND
  5
43A
  8
STANDARD
  0
POLYLINE
  5
52
  8
STANDARD
 66
     1
 10
0.0
 20
0.0
 30
0.0
 70
     1
  0
VERTEX
  5
43B
  8
STANDARD
 10
-10.16535054227215
 20
-7.39408513022895
 30
0.0
  0
VERTEX
  5
43C
  8
STANDARD
 10
-9.972560016544863
 20
-7.689821820435376
 30
0.0
  0
VERTEX
  5
43D
  8
STANDARD
 10
-11.25978437092237
 20
-8.534128078782011
 30
0.0
  0
VERTEX
  5
43E
  8
STANDARD
 10
-11.4221782032205
 20
-8.633843440400845
 30
0.0
  0
VERTEX
  5
43F
  8
STANDARD
 10
-11.5734959665642
 20
-8.712692378746594
 30
0.0
  0
VERTEX
  5
440
  8
STANDARD
 10
-11.71373766095347
 20
-8.770674893819258
 30
0.0
  0
VERTEX
  5
441
  8
STANDARD
 10
-11.84290328638831
 20
-8.807790985618837
 30
0.0
  0
VERTEX
  5
442
  8
STANDARD
 10
-11.96692403225768
 20
-8.823782538522583
 30
0.0
  0
VERTEX
  5
443
  8
STANDARD
 10
-12.09173108795052
 20
-8.81839143690775
 30
0.0
  0
VERTEX
  5
444
  8
STANDARD
 10
-12.21732445346683
 20
-8.791617680774333
 30
0.0
  0
VERTEX
  5
445
  8
STANDARD
 10
-12.34370412880661
 20
-8.743461270122339
 30
0.0
  0
VERTEX
  5
446
  8
STANDARD
 10
-12.46779774943075
 20
-8.671770988392051
 30
0.0
  0
VERTEX
  5
447
  8
STANDARD
 10
-12.58653295080012
 20
-8.574395619023758
 30
0.0
  0
VERTEX
  5
448
  8
STANDARD
 10
-12.69990973291471
 20
-8.451335162017457
 30
0.0
  0
VERTEX
  5
449
  8
STANDARD
 10
-12.80792809577453
 20
-8.302589617373156
 30
0.0
  0
VERTEX
  5
44A
  8
STANDARD
 10
-12.89888380576809
 20
-8.148297089088867
 30
0.0
  0
VERTEX
  5
44B
  8
STANDARD
 10
-12.96703522286311
 20
-7.999449185589215
 30
0.0
  0
VERTEX
  5
44C
  8
STANDARD
 10
-13.0123823470596
 20
-7.856045906874201
 30
0.0
  0
VERTEX
  5
44D
  8
STANDARD
 10
-13.03492517835753
 20
-7.718087252943826
 30
0.0
  0
VERTEX
  5
44E
  8
STANDARD
 10
-13.0353760974135
 20
-7.586040483017213
 30
0.0
  0
VERTEX
  5
44F
  8
STANDARD
 10
-13.01444748488406
 20
-7.460372856313492
 30
0.0
  0
VERTEX
  5
450
  8
STANDARD
 10
-12.97213934076922
 20
-7.34108437283266
 30
0.0
  0
VERTEX
  5
451
  8
STANDARD
 10
-12.90845166506898
 20
-7.228175032574718
 30
0.0
  0
VERTEX
  5
452
  8
STANDARD
 10
-12.82124011136522
 20
-7.117654048601509
 30
0.0
  0
VERTEX
  5
453
  8
STANDARD
 10
-12.70836033323984
 20
-7.005530633974877
 30
0.0
  0
VERTEX
  5
454
  8
STANDARD
 10
-12.56981233069284
 20
-6.891804788694821
 30
0.0
  0
VERTEX
  5
455
  8
STANDARD
 10
-12.40559610372422
 20
-6.776476512761342
 30
0.0
  0
VERTEX
  5
456
  8
STANDARD
 10
-11.11837174934671
 20
-5.932170254414706
 30
0.0
  0
VERTEX
  5
457
  8
STANDARD
 10
-10.92558122361943
 20
-6.227906944621133
 30
0.0
  0
VERTEX
  5
458
  8
STANDARD
 10
-12.21128583259625
 20
-7.071216383300298
 30
0.0
  0
VERTEX
  5
459
  8
STANDARD
 10
-12.34467070014603
 20
-7.163533685849584
 30
0.0
  0
VERTEX
  5
45A
  8
STANDARD
 10
-12.45455393126513
 20
-7.250093037010775
 30
0.0
  0
VERTEX
  5
45B
  8
STANDARD
 10
-12.54093552595355
 20
-7.33089443678387
 30
0.0
  0
VERTEX
  5
45C
  8
STANDARD
 10
-12.60381548421129
 20
-7.40593788516887
 30
0.0
  0
VERTEX
  5
45D
  8
STANDARD
 10
-12.64783515678173
 20
-7.48037593262069
 30
0.0
  0
VERTEX
  5
45E
  8
STANDARD
 10
-12.67763589440823
 20
-7.559361129594243
 30
0.0
  0
VERTEX
  5
45F
  8
STANDARD
 10
-12.69321769709081
 20
-7.64289347608953
 30
0.0
  0
VERTEX
  5
460
  8
STANDARD
 10
-12.69458056482945
 20
-7.730972972106551
 30
0.0
  0
VERTEX
  5
461
  8
STANDARD
 10
-12.68178849633988
 20
-7.821941408481727
 30
0.0
  0
VERTEX
  5
462
  8
STANDARD
 10
-12.65490549033783
 20
-7.91414057605148
 30
0.0
  0
VERTEX
  5
463
  8
STANDARD
 10
-12.61393154682329
 20
-8.007570474815811
 30
0.0
  0
VERTEX
  5
464
  8
STANDARD
 10
-12.55886666579626
 20
-8.102231104774717
 30
0.0
  0
VERTEX
  5
465
  8
STANDARD
 10
-12.450959863499
 20
-8.247581442479476
 30
0.0
  0
VERTEX
  5
466
  8
STANDARD
 10
-12.33990529426516
 20
-8.357407446809344
 30
0.0
  0
VERTEX
  5
467
  8
STANDARD
 10
-12.28319759704703
 20
-8.398998823958692
 30
0.0
  0
VERTEX
  5
468
  8
STANDARD
 10
-12.22570295809474
 20
-8.431709117764319
 30
0.0
  0
VERTEX
  5
469
  8
STANDARD
 10
-12.16742137740832
 20
-8.455538328226224
 30
0.0
  0
VERTEX
  5
46A
  8
STANDARD
 10
-12.10835285498774
 20
-8.470486455344405
 30
0.0
  0
VERTEX
  5
46B
  8
STANDARD
 10
-12.04605333424013
 20
-8.476038531884367
 30
0.0
  0
VERTEX
  5
46C
  8
STANDARD
 10
-11.9780787585726
 20
-8.471679590611618
 30
0.0
  0
VERTEX
  5
46D
  8
STANDARD
 10
-11.90442912798514
 20
-8.45740963152615
 30
0.0
  0
VERTEX
  5
46E
  8
STANDARD
 10
-11.82510444247776
 20
-8.433228654627975
 30
0.0
  0
VERTEX
  5
46F
  8
STANDARD
 10
-11.64942990670321
 20
-8.355133647393473
 30
0.0
  0
VERTEX
  5
470
  8
STANDARD
 10
-11.45105515124897
 20
-8.237394568908115
 30
0.0
  0
SEQEND
  5
471
  8
STANDARD
  0
POLYLINE
  5
53
  8
STANDARD
 66
     1
 10
0.0
 20
0.0
 30
0.0
 70
     1
  0
VERTEX
  5
472
  8
STANDARD
 10
-11.43451625297479
 20
-10.17029511378684
 30
0.0
  0
VERTEX
  5
473
  8
STANDARD
 10
-9.631719087081512
 20
-8.205676577026688
 30
0.0
  0
VERTEX
  5
474
  8
STANDARD
 10
-8.76330875215267
 20
-9.007463361040871
 30
0.0
  0
VERTEX
  5
475
  8
STANDARD
 10
-8.643264205181053
 20
-9.1244096443549
 30
0.0
  0
VERTEX
  5
476
  8
STANDARD
 10
-8.544989680644743
 20
-9.233478940963481
 30
0.0
  0
VERTEX
  5
477
  8
STANDARD
 10
-8.468485178543744
 20
-9.334671250866615
 30
0.0
  0
VERTEX
  5
478
  8
STANDARD
 10
-8.41375069887805
 20
-9.427986574064299
 30
0.0
  0
VERTEX
  5
479
  8
STANDARD
 10
-8.377974721230462
 20
-9.519269849202454
 30
0.0
  0
VERTEX
  5
47A
  8
STANDARD
 10
-8.358345725183778
 20
-9.614366014926992
 30
0.0
  0
VERTEX
  5
47B
  8
STANDARD
 10
-8.354863710737991
 20
-9.713275071237916
 30
0.0
  0
VERTEX
  5
47C
  8
STANDARD
 10
-8.367528677893105
 20
-9.815997018135228
 30
0.0
  0
VERTEX
  5
47D
  8
STANDARD
 10
-8.394974728718188
 20
-9.917681532300723
 30
0.0
  0
VERTEX
  5
47E
  8
STANDARD
 10
-8.435835965282301
 20
-10.0134782904162
 30
0.0
  0
VERTEX
  5
47F
  8
STANDARD
 10
-8.490112387585446
 20
-10.10338729248167
 30
0.0
  0
VERTEX
  5
480
  8
STANDARD
 10
-8.557803995627625
 20
-10.18740853849712
 30
0.0
  0
VERTEX
  5
481
  8
STANDARD
 10
-8.658391151670395
 20
-10.2800473315671
 30
0.0
  0
VERTEX
  5
482
  8
STANDARD
 10
-8.76831335794376
 20
-10.34890471232235
 30
0.0
  0
VERTEX
  5
483
  8
STANDARD
 10
-8.887570614447721
 20
-10.39398068076288
 30
0.0
  0
VERTEX
  5
484
  8
STANDARD
 10
-9.016162921182278
 20
-10.41527523688867
 30
0.0
  0
VERTEX
  5
485
  8
STANDARD
 10
-9.152612885410912
 20
-10.40966555601677
 30
0.0
  0
VERTEX
  5
486
  8
STANDARD
 10
-9.295443114397106
 20
-10.37402881346423
 30
0.0
  0
VERTEX
  5
487
  8
STANDARD
 10
-9.444653608140863
 20
-10.30836500923106
 30
0.0
  0
VERTEX
  5
488
  8
STANDARD
 10
-9.600244366642178
 20
-10.21267414331724
 30
0.0
  0
VERTEX
  5
489
  8
STANDARD
 10
-9.554922192457731
 20
-10.3454944721716
 30
0.0
  0
VERTEX
  5
48A
  8
STANDARD
 10
-9.533701442992236
 20
-10.45482465474231
 30
0.0
  0
VERTEX
  5
48B
  8
STANDARD
 10
-9.528629580120796
 20
-10.56208661775236
 30
0.0
  0
VERTEX
  5
48C
  8
STANDARD
 10
-9.531055712069701
 20
-10.67449396656872
 30
0.0
  0
VERTEX
  5
48D
  8
STANDARD
 10
-9.558401960428544
 20
-10.91474482162034
 30
0.0
  0
VERTEX
  5
48E
  8
STANDARD
 10
-9.708383710316225
 20
-11.76400053678118
 30
0.0
  0
VERTEX
  5
48F
  8
STANDARD
 10
-10.03437158988951
 20
-11.46302211324355
 30
0.0
  0
VERTEX
  5
490
  8
STANDARD
 10
-9.918488322764695
 20
-10.81498245175392
 30
0.0
  0
VERTEX
  5
491
  8
STANDARD
 10
-9.878764978044025
 20
-10.56326060878831
 30
0.0
  0
VERTEX
  5
492
  8
STANDARD
 10
-9.857123299424375
 20
-10.37158531309543
 30
0.0
  0
VERTEX
  5
493
  8
STANDARD
 10
-9.85359366615252
 20
-10.22755093440266
 30
0.0
  0
VERTEX
  5
494
  8
STANDARD
 10
-9.868206457475228
 20
-10.11875184243738
 30
0.0
  0
VERTEX
  5
495
  8
STANDARD
 10
-9.897617857204366
 20
-10.03280334212348
 30
0.0
  0
VERTEX
  5
496
  8
STANDARD
 10
-9.938484049151803
 20
-9.957320738384853
 30
0.0
  0
VERTEX
  5
497
  8
STANDARD
 10
-9.990144611792308
 20
-9.896627060391292
 30
0.0
  0
VERTEX
  5
498
  8
STANDARD
 10
-10.07416559433367
 20
-9.81471992793081
 30
0.0
  0
VERTEX
  5
499
  8
STANDARD
 10
-10.37476917180904
 20
-9.537178348848979
 30
0.0
  0
VERTEX
  5
49A
  8
STANDARD
 10
-11.17532916839602
 20
-10.40959763086184
 30
0.0
  0
SEQEND
  5
49B
  8
STANDARD
  0
POLYLINE
  5
54
  8
STANDARD
 66
     1
 10
0.0
 20
0.0
 30
0.0
 70
     1
  0
VERTEX
  5
49C
  8
STANDARD
 10
-10.16817304365756
 20
-9.312037888974691
 30
0.0
  0
VERTEX
  5
49D
  8
STANDARD
 10
-9.611054413403208
 20
-9.82641494887302
 30
0.0
  0
VERTEX
  5
49E
  8
STANDARD
 10
-9.444282074617124
 20
-9.96337350991781
 30
0.0
  0
VERTEX
  5
49F
  8
STANDARD
 10
-9.3690842371486
 20
-10.01152827783085
 30
0.0
  0
VERTEX
  5
4A0
  8
STANDARD
 10
-9.299345287629754
 20
-10.04613337067099
 30
0.0
  0
VERTEX
  5
4A1
  8
STANDARD
 10
-9.232805481465784
 20
-10.06842420900237
 30
0.0
  0
VERTEX
  5
4A2
  8
STANDARD
 10
-9.167205074061886
 20
-10.07963621338913
 30
0.0
  0
VERTEX
  5
4A3
  8
STANDARD
 10
-9.102544065418066
 20
-10.07976938383127
 30
0.0
  0
VERTEX
  5
4A4
  8
STANDARD
 10
-9.038822455534316
 20
-10.06882372032878
 30
0.0
  0
VERTEX
  5
4A5
  8
STANDARD
 10
-8.978020067660994
 20
-10.04845248449255
 30
0.0
  0
VERTEX
  5
4A6
  8
STANDARD
 10
-8.922116725048456
 20
-10.02030893793344
 30
0.0
  0
VERTEX
  5
4A7
  8
STANDARD
 10
-8.871112427696701
 20
-9.984393080651461
 30
0.0
  0
VERTEX
  5
4A8
  8
STANDARD
 10
-8.82500717560573
 20
-9.940704912646604
 30
0.0
  0
VERTEX
  5
4A9
  8
STANDARD
 10
-8.770208851124252
 20
-9.868296947783694
 30
0.0
  0
VERTEX
  5
4AA
  8
STANDARD
 10
-8.733706718916444
 20
-9.790445718831432
 30
0.0
  0
VERTEX
  5
4AB
  8
STANDARD
 10
-8.71550077898231
 20
-9.707151225789817
 30
0.0
  0
VERTEX
  5
4AC
  8
STANDARD
 10
-8.71559103132185
 20
-9.618413468658847
 30
0.0
  0
VERTEX
  5
4AD
  8
STANDARD
 10
-8.73728524821881
 20
-9.525820037188396
 30
0.0
  0
VERTEX
  5
4AE
  8
STANDARD
 10
-8.783891201956951
 20
-9.430958521128336
 30
0.0
  0
VERTEX
  5
4AF
  8
STANDARD
 10
-8.855408892536266
 20
-9.333828920478664
 30
0.0
  0
VERTEX
  5
4B0
  8
STANDARD
 10
-8.951838319956758
 20
-9.234431235239382
 30
0.0
  0
VERTEX
  5
4B1
  8
STANDARD
 10
-9.571749697505963
 20
-8.662078823266182
 30
0.0
  0
SEQEND
  5
4B2
  8
STANDARD
  0
POLYLINE
  5
55
  8
STANDARD
 66
     1
 10
0.0
 20
0.0
 30
0.0
 70
     1
  0
VERTEX
  5
4B3
  8
STANDARD
 10
-9.082491692642026
 20
-12.26465165964373
 30
0.0
  0
VERTEX
  5
4B4
  8
STANDARD
 10
-7.625631328125531
 20
-10.02985790787764
 30
0.0
  0
VERTEX
  5
4B5
  8
STANDARD
 10
-6.122603126851208
 20
-11.01571255900494
 30
0.0
  0
VERTEX
  5
4B6
  8
STANDARD
 10
-6.294524575051313
 20
-11.27943651470449
 30
0.0
  0
VERTEX
  5
4B7
  8
STANDARD
 10
-7.502722168593363
 20
-10.48696487906626
 30
0.0
  0
VERTEX
  5
4B8
  8
STANDARD
 10
-7.953891749419071
 20
-11.17904971078645
 30
0.0
  0
VERTEX
  5
4B9
  8
STANDARD
 10
-6.908306913749977
 20
-11.86486164200545
 30
0.0
  0
VERTEX
  5
4BA
  8
STANDARD
 10
-7.080228361950081
 20
-12.12858559770499
 30
0.0
  0
VERTEX
  5
4BB
  8
STANDARD
 10
-8.125813197619177
 20
-11.442773666486
 30
0.0
  0
VERTEX
  5
4BC
  8
STANDARD
 10
-8.787661084909754
 20
-12.4580346751328
 30
0.0
  0
SEQEND
  5
4BD
  8
STANDARD
  0
POLYLINE
  5
56
  8
STANDARD
 66
     1
 10
0.0
 20
0.0
 30
0.0
 70
     1
  0
VERTEX
  5
4BE
  8
STANDARD
 10
-7.237970594968361
 20
-13.46462225138918
 30
0.0
  0
VERTEX
  5
4BF
  8
STANDARD
 10
-5.225141587022017
 20
-11.43855902516153
 30
0.0
  0
VERTEX
  5
4C0
  8
STANDARD
 10
-4.87815381001635
 20
-11.5927333952182
 30
0.0
  0
VERTEX
  5
4C1
  8
STANDARD
 10
-4.960136958356994
 20
-14.47671428831623
 30
0.0
  0
VERTEX
  5
4C2
  8
STANDARD
 10
-5.32704747854002
 20
-14.3136878013185
 30
0.0
  0
VERTEX
  5
4C3
  8
STANDARD
 10
-5.284421728162123
 20
-13.44813823146774
 30
0.0
  0
VERTEX
  5
4C4
  8
STANDARD
 10
-6.30214185880554
 20
-12.99594259106229
 30
0.0
  0
VERTEX
  5
4C5
  8
STANDARD
 10
-6.895963503757034
 20
-13.61658359221059
 30
0.0
  0
SEQEND
  5
4C6
  8
STANDARD
  0
POLYLINE
  5
57
  8
STANDARD
 66
     1
 10
0.0
 20
0.0
 30
0.0
 70
     1
  0
VERTEX
  5
4C7
  8
STANDARD
 10
-6.092973280681623
 20
-12.7741301936709
 30
0.0
  0
VERTEX
  5
4C8
  8
STANDARD
 10
-5.267839667419342
 20
-13.14075537031284
 30
0.0
  0
VERTEX
  5
4C9
  8
STANDARD
 10
-5.223275621971127
 20
-12.35176654869066
 30
0.0
  0
VERTEX
  5
4CA
  8
STANDARD
 10
-5.200631918594748
 20
-12.02616003705615
 30
0.0
  0
VERTEX
  5
4CB
  8
STANDARD
 10
-5.17237283860914
 20
-11.76878761933219
 30
0.0
  0
VERTEX
  5
4CC
  8
STANDARD
 10
-5.331731545038849
 20
-11.97787002677202
 30
0.0
  0
VERTEX
  5
4CD
  8
STANDARD
 10
-5.50944746403908
 20
-12.17680382461308
 30
0.0
  0
SEQEND
  5
4CE
  8
STANDARD
  0
POLYLINE
  5
58
  8
STANDARD
 66
     1
 10
0.0
 20
0.0
 30
0.0
 70
     1
  0
VERTEX
  5
4CF
  8
STANDARD
 10
-2.042001710392317
 20
-14.18037431463942
 30
0.0
  0
VERTEX
  5
4D0
  8
STANDARD
 10
-1.711837733119417
 20
-14.33250316051792
 30
0.0
  0
VERTEX
  5
4D1
  8
STANDARD
 10
-1.814358163164425
 20
-14.52167081167223
 30
0.0
  0
VERTEX
  5
4D2
  8
STANDARD
 10
-1.87201835500206
 20
-14.60520985561266
 30
0.0
  0
VERTEX
  5
4D3
  8
STANDARD
 10
-1.933945198049782
 20
-14.68138571179528
 30
0.0
  0
VERTEX
  5
4D4
  8
STANDARD
 10
-2.000138692307592
 20
-14.75019838022008
 30
0.0
  0
VERTEX
  5
4D5
  8
STANDARD
 10
-2.070598837775489
 20
-14.81164786088706
 30
0.0
  0
VERTEX
  5
4D6
  8
STANDARD
 10
-2.145325634453473
 20
-14.86573415379623
 30
0.0
  0
VERTEX
  5
4D7
  8
STANDARD
 10
-2.224319082341545
 20
-14.91245725894759
 30
0.0
  0
VERTEX
  5
4D8
  8
STANDARD
 10
-2.306763926488364
 20
-14.95162136757825
 30
0.0
  0
VERTEX
  5
4D9
  8
STANDARD
 10
-2.391844911942593
 20
-14.98303067092534
 30
0.0
  0
VERTEX
  5
4DA
  8
STANDARD
 10
-2.47956203870423
 20
-15.00668516898887
 30
0.0
  0
VERTEX
  5
4DB
  8
STANDARD
 10
-2.569915306773275
 20
-15.02258486176883
 30
0.0
  0
VERTEX
  5
4DC
  8
STANDARD
 10
-2.662904716149729
 20
-15.03072974926522
 30
0.0
  0
VERTEX
  5
4DD
  8
STANDARD
 10
-2.758530266833592
 20
-15.03111983147804
 30
0.0
  0
VERTEX
  5
4DE
  8
STANDARD
 10
-2.957689792123543
 20
-15.00863558005299
 30
0.0
  0
VERTEX
  5
4DF
  8
STANDARD
 10
-3.157392476785148
 20
-14.96034835150873
 30
0.0
  0
VERTEX
  5
4E0
  8
STANDARD
 10
-3.333353469866644
 20
-14.89412898283797
 30
0.0
  0
VERTEX
  5
4E1
  8
STANDARD
 10
-3.485572771368032
 20
-14.8099774740407
 30
0.0
  0
VERTEX
  5
4E2
  8
STANDARD
 10
-3.614050381289312
 20
-14.70789382511693
 30
0.0
  0
VERTEX
  5
4E3
  8
STANDARD
 10
-3.720945869060972
 20
-14.5886344269811
 30
0.0
  0
VERTEX
  5
4E4
  8
STANDARD
 10
-3.808418804113502
 20
-14.45295567054765
 30
0.0
  0
VERTEX
  5
4E5
  8
STANDARD
 10
-3.8764691864469
 20
-14.30085755581658
 30
0.0
  0
VERTEX
  5
4E6
  8
STANDARD
 10
-3.925097016061168
 20
-14.13234008278789
 30
0.0
  0
VERTEX
  5
4E7
  8
STANDARD
 10
-3.954807152055996
 20
-13.95419803012244
 30
0.0
  0
VERTEX
  5
4E8
  8
STANDARD
 10
-3.966104453531076
 20
-13.77322617648108
 30
0.0
  0
VERTEX
  5
4E9
  8
STANDARD
 10
-3.958988920486409
 20
-13.5894245218638
 30
0.0
  0
VERTEX
  5
4EA
  8
STANDARD
 10
-3.933460552921995
 20
-13.4027930662706
 30
0.0
  0
VERTEX
  5
4EB
  8
STANDARD
 10
-3.887028538123918
 20
-13.206095698183
 30
0.0
  0
VERTEX
  5
4EC
  8
STANDARD
 10
-3.823487405394092
 20
-13.02612374194477
 30
0.0
  0
VERTEX
  5
4ED
  8
STANDARD
 10
-3.742837154732515
 20
-12.86287719755593
 30
0.0
  0
VERTEX
  5
4EE
  8
STANDARD
 10
-3.645077786139188
 20
-12.71635606501648
 30
0.0
  0
VERTEX
  5
4EF
  8
STANDARD
 10
-3.532201630192041
 20
-12.58891077806134
 30
0.0
  0
VERTEX
  5
4F0
  8
STANDARD
 10
-3.406201017469009
 20
-12.48289177042545
 30
0.0
  0
VERTEX
  5
4F1
  8
STANDARD
 10
-3.267075947970088
 20
-12.39829904210881
 30
0.0
  0
VERTEX
  5
4F2
  8
STANDARD
 10
-3.114826421695282
 20
-12.33513259311142
 30
0.0
  0
VERTEX
  5
4F3
  8
STANDARD
 10
-2.954217789895111
 20
-12.29325931492258
 30
0.0
  0
VERTEX
  5
4F4
  8
STANDARD
 10
-2.790015403820098
 20
-12.27254609903159
 30
0.0
  0
VERTEX
  5
4F5
  8
STANDARD
 10
-2.622219263470243
 20
-12.27299294543846
 30
0.0
  0
VERTEX
  5
4F6
  8
STANDARD
 10
-2.450829368845547
 20
-12.29459985414318
 30
0.0
  0
VERTEX
  5
4F7
  8
STANDARD
 10
-2.264558910163313
 20
-12.34218520078957
 30
0.0
  0
VERTEX
  5
4F8
  8
STANDARD
 10
-2.098542274195644
 20
-12.41193993384417
 30
0.0
  0
VERTEX
  5
4F9
  8
STANDARD
 10
-1.952779460942538
 20
-12.50386405330699
 30
0.0
  0
VERTEX
  5
4FA
  8
STANDARD
 10
-1.887493237833946
 20
-12.55813963294148
 30
0.0
  0
VERTEX
  5
4FB
  8
STANDARD
 10
-1.827270470403995
 20
-12.61795755917803
 30
0.0
  0
VERTEX
  5
4FC
  8
STANDARD
 10
-1.723924495480412
 20
-12.75143435284587
 30
0.0
  0
VERTEX
  5
4FD
  8
STANDARD
 10
-1.644650729072182
 20
-12.90150833569912
 30
0.0
  0
VERTEX
  5
4FE
  8
STANDARD
 10
-1.589449171179306
 20
-13.06817950773776
 30
0.0
  0
VERTEX
  5
4FF
  8
STANDARD
 10
-1.558319821801784
 20
-13.25144786896182
 30
0.0
  0
VERTEX
  5
500
  8
STANDARD
 10
-1.914223409769117
 20
-13.26866075708447
 30
0.0
  0
VERTEX
  5
501
  8
STANDARD
 10
-1.940219171767452
 20
-13.1257099483284
 30
0.0
  0
VERTEX
  5
502
  8
STANDARD
 10
-1.980078691212315
 20
-13.00032738060663
 30
0.0
  0
VERTEX
  5
503
  8
STANDARD
 10
-2.033801968103709
 20
-12.89251305391918
 30
0.0
  0
VERTEX
  5
504
  8
STANDARD
 10
-2.101389002441631
 20
-12.80226696826604
 30
0.0
  0
VERTEX
  5
505
  8
STANDARD
 10
-2.182996695345061
 20
-12.72793911464931
 30
0.0
  0
VERTEX
  5
506
  8
STANDARD
 10
-2.278781947932977
 20
-12.66787948407111
 30
0.0
  0
VERTEX
  5
507
  8
STANDARD
 10
-2.388744760205379
 20
-12.62208807653144
 30
0.0
  0
VERTEX
  5
508
  8
STANDARD
 10
-2.512885132162266
 20
-12.59056489203028
 30
0.0
  0
VERTEX
  5
509
  8
STANDARD
 10
-2.659235521283958
 20
-12.57274328936768
 30
0.0
  0
VERTEX
  5
50A
  8
STANDARD
 10
-2.79654891104287
 20
-12.57535675803211
 30
0.0
  0
VERTEX
  5
50B
  8
STANDARD
 10
-2.924825301439002
 20
-12.59840529802358
 30
0.0
  0
VERTEX
  5
50C
  8
STANDARD
 10
-3.044064692472355
 20
-12.64188890934208
 30
0.0
  0
VERTEX
  5
50D
  8
STANDARD
 10
-3.152400786752874
 20
-12.70320218503161
 30
0.0
  0
VERTEX
  5
50E
  8
STANDARD
 10
-3.247967286890506
 20
-12.77973971813616
 30
0.0
  0
VERTEX
  5
50F
  8
STANDARD
 10
-3.33076419288525
 20
-12.87150150865572
 30
0.0
  0
VERTEX
  5
510
  8
STANDARD
 10
-3.400791504737107
 20
-12.9784875565903
 30
0.0
  0
VERTEX
  5
511
  8
STANDARD
 10
-3.459476647907779
 20
-13.0949911525996
 30
0.0
  0
VERTEX
  5
512
  8
STANDARD
 10
-3.50824704785897
 20
-13.21530558734335
 30
0.0
  0
VERTEX
  5
513
  8
STANDARD
 10
-3.547102704590678
 20
-13.33943086082153
 30
0.0
  0
VERTEX
  5
514
  8
STANDARD
 10
-3.576043618102904
 20
-13.46736697303416
 30
0.0
  0
VERTEX
  5
515
  8
STANDARD
 10
-3.599910409173938
 20
-13.630631264893
 30
0.0
  0
VERTEX
  5
516
  8
STANDARD
 10
-3.609649784652352
 20
-13.78552253487737
 30
0.0
  0
VERTEX
  5
517
  8
STANDARD
 10
-3.605261744538146
 20
-13.93204078298728
 30
0.0
  0
VERTEX
  5
518
  8
STANDARD
 10
-3.586746288831321
 20
-14.07018600922273
 30
0.0
  0
VERTEX
  5
519
  8
STANDARD
 10
-3.552958345298487
 20
-14.1975082034689
 30
0.0
  0
VERTEX
  5
51A
  8
STANDARD
 10
-3.502752841706255
 20
-14.31155735561099
 30
0.0
  0
VERTEX
  5
51B
  8
STANDARD
 10
-3.436129778054625
 20
-14.41233346564899
 30
0.0
  0
VERTEX
  5
51C
  8
STANDARD
 10
-3.353089154343598
 20
-14.49983653358292
 30
0.0
  0
VERTEX
  5
51D
  8
STANDARD
 10
-3.258292944487908
 20
-14.57337378912801
 30
0.0
  0
VERTEX
  5
51E
  8
STANDARD
 10
-3.156403122402292
 20
-14.63225246199953
 30
0.0
  0
VERTEX
  5
51F
  8
STANDARD
 10
-3.047419688086749
 20
-14.67647255219747
 30
0.0
  0
VERTEX
  5
520
  8
STANDARD
 10
-2.93134264154128
 20
-14.70603405972183
 30
0.0
  0
VERTEX
  5
521
  8
STANDARD
 10
-2.789466021475338
 20
-14.7215191339473
 30
0.0
  0
VERTEX
  5
522
  8
STANDARD
 10
-2.654861355063339
 20
-14.71388702470468
 30
0.0
  0
VERTEX
  5
523
  8
STANDARD
 10
-2.527528642305283
 20
-14.68313773199398
 30
0.0
  0
VERTEX
  5
524
  8
STANDARD
 10
-2.407467883201169
 20
-14.62927125581519
 30
0.0
  0
VERTEX
  5
525
  8
STANDARD
 10
-2.297307660692758
 20
-14.55214639605708
 30
0.0
  0
VERTEX
  5
526
  8
STANDARD
 10
-2.199676557721813
 20
-14.45162195260841
 30
0.0
  0
VERTEX
  5
527
  8
STANDARD
 10
-2.114574574288333
 20
-14.32769792546919
 30
0.0
  0
SEQEND
  5
528
  8
STANDARD
  0
POLYLINE
  5
59
  8
STANDARD
 66
     1
 10
0.0
 20
0.0
 30
0.0
 70
     1
  0
VERTEX
  5
529
  8
STANDARD
 10
-0.9735568991333435
 20
-15.2280790800711
 30
0.0
  0
VERTEX
  5
52A
  8
STANDARD
 10
-0.8781040025628256
 20
-12.559625699248
 30
0.0
  0
VERTEX
  5
52B
  8
STANDARD
 10
-0.5260617922462911
 20
-12.5722960755075
 30
0.0
  0
VERTEX
  5
52C
  8
STANDARD
 10
-0.6215146888168092
 20
-15.2407494563306
 30
0.0
  0
SEQEND
  5
52D
  8
STANDARD
  0
POLYLINE
  5
5A
  8
STANDARD
 66
     1
 10
0.0
 20
0.0
 30
0.0
 70
     1
  0
VERTEX
  5
52E
  8
STANDARD
 10
0.3901607289380822
 20
-15.30054999634243
 30
0.0
  0
VERTEX
  5
52F
  8
STANDARD
 10
0.1016862831015415
 20
-12.64610447908896
 30
0.0
  0
VERTEX
  5
530
  8
STANDARD
 10
0.4609060953283606
 20
-12.60682559922715
 30
0.0
  0
VERTEX
  5
531
  8
STANDARD
 10
2.077341929966393
 20
-14.53892575250303
 30
0.0
  0
VERTEX
  5
532
  8
STANDARD
 10
1.850852102437158
 20
-12.45484199373172
 30
0.0
  0
VERTEX
  5
533
  8
STANDARD
 10
2.186605293764738
 20
-12.41812907084581
 30
0.0
  0
VERTEX
  5
534
  8
STANDARD
 10
2.475079739601279
 20
-15.07257458809928
 30
0.0
  0
VERTEX
  5
535
  8
STANDARD
 10
2.115859927374459
 20
-15.11185346796108
 30
0.0
  0
VERTEX
  5
536
  8
STANDARD
 10
0.4992273161703722
 20
-13.17794264243606
 30
0.0
  0
VERTEX
  5
537
  8
STANDARD
 10
0.7259139202656619
 20
-15.26383707345652
 30
0.0
  0
SEQEND
  5
538
  8
STANDARD
  0
POLYLINE
  5
5B
  8
STANDARD
 66
     1
 10
0.0
 20
0.0
 30
0.0
 70
     1
  0
VERTEX
  5
539
  8
STANDARD
 10
4.507361278011455
 20
-13.46698857371901
 30
0.0
  0
VERTEX
  5
53A
  8
STANDARD
 10
4.403917515882609
 20
-13.17139046803739
 30
0.0
  0
VERTEX
  5
53B
  8
STANDARD
 10
5.46729290149103
 20
-12.79504398924514
 30
0.0
  0
VERTEX
  5
53C
  8
STANDARD
 10
5.794463870084588
 20
-13.72995892814513
 30
0.0
  0
VERTEX
  5
53D
  8
STANDARD
 10
5.703154184831063
 20
-13.86532280292413
 30
0.0
  0
VERTEX
  5
53E
  8
STANDARD
 10
5.605669496241402
 20
-13.98922778384198
 30
0.0
  0
VERTEX
  5
53F
  8
STANDARD
 10
5.502009804315605
 20
-14.10167387089867
 30
0.0
  0
VERTEX
  5
540
  8
STANDARD
 10
5.392175109053674
 20
-14.20266106409422
 30
0.0
  0
VERTEX
  5
541
  8
STANDARD
 10
5.276234904890807
 20
-14.29204424723153
 30
0.0
  0
VERTEX
  5
542
  8
STANDARD
 10
5.154258686262209
 20
-14.36967830411354
 30
0.0
  0
VERTEX
  5
543
  8
STANDARD
 10
5.026246453167879
 20
-14.43556323474025
 30
0.0
  0
VERTEX
  5
544
  8
STANDARD
 10
4.892198205607817
 20
-14.48969903911164
 30
0.0
  0
VERTEX
  5
545
  8
STANDARD
 10
4.707911597281032
 20
-14.54342678358133
 30
0.0
  0
VERTEX
  5
546
  8
STANDARD
 10
4.52513066024158
 20
-14.57430466563229
 30
0.0
  0
VERTEX
  5
547
  8
STANDARD
 10
4.343855394489463
 20
-14.58233268526452
 30
0.0
  0
VERTEX
  5
548
  8
STANDARD
 10
4.164085800024679
 20
-14.56751084247801
 30
0.0
  0
VERTEX
  5
549
  8
STANDARD
 10
3.991230664153955
 20
-14.52914116584441
 30
0.0
  0
VERTEX
  5
54A
  8
STANDARD
 10
3.83069877418402
 20
-14.46652568393534
 30
0.0
  0
VERTEX
  5
54B
  8
STANDARD
 10
3.682490130114874
 20
-14.37966439675082
 30
0.0
  0
VERTEX
  5
54C
  8
STANDARD
 10
3.546604731946517
 20
-14.26855730429082
 30
0.0
  0
VERTEX
  5
54D
  8
STANDARD
 10
3.424977296138127
 20
-14.13753004447158
 30
0.0
  0
VERTEX
  5
54E
  8
STANDARD
 10
3.319542539148887
 20
-13.9909082552093
 30
0.0
  0
VERTEX
  5
54F
  8
STANDARD
 10
3.230300460978796
 20
-13.828691936504
 30
0.0
  0
VERTEX
  5
550
  8
STANDARD
 10
3.157251061627854
 20
-13.65088108835566
 30
0.0
  0
VERTEX
  5
551
  8
STANDARD
 10
3.10355462286863
 20
-13.46667829756302
 30
0.0
  0
VERTEX
  5
552
  8
STANDARD
 10
3.071168592030338
 20
-13.28184896364946
 30
0.0
  0
VERTEX
  5
553
  8
STANDARD
 10
3.060092969112977
 20
-13.09639308661496
 30
0.0
  0
VERTEX
  5
554
  8
STANDARD
 10
3.070327754116547
 20
-12.91031066645954
 30
0.0
  0
VERTEX
  5
555
  8
STANDARD
 10
3.103213468529703
 20
-12.73121305908292
 30
0.0
  0
VERTEX
  5
556
  8
STANDARD
 10
3.160090633841102
 20
-12.56671162038484
 30
0.0
  0
VERTEX
  5
557
  8
STANDARD
 10
3.240959250050743
 20
-12.41680635036532
 30
0.0
  0
VERTEX
  5
558
  8
STANDARD
 10
3.345819317158626
 20
-12.28149724902434
 30
0.0
  0
VERTEX
  5
559
  8
STANDARD
 10
3.471519315176981
 20
-12.1612304124038
 30
0.0
  0
VERTEX
  5
55A
  8
STANDARD
 10
3.614907724118041
 20
-12.0564519365456
 30
0.0
  0
VERTEX
  5
55B
  8
STANDARD
 10
3.775984543981805
 20
-11.96716182144972
 30
0.0
  0
VERTEX
  5
55C
  8
STANDARD
 10
3.954749774768273
 20
-11.89336006711618
 30
0.0
  0
VERTEX
  5
55D
  8
STANDARD
 10
4.089629145298536
 20
-11.85208215679051
 30
0.0
  0
VERTEX
  5
55E
  8
STANDARD
 10
4.221848075488387
 20
-11.82416764278546
 30
0.0
  0
VERTEX
  5
55F
  8
STANDARD
 10
4.351406565337822
 20
-11.80961652510102
 30
0.0
  0
VERTEX
  5
560
  8
STANDARD
 10
4.478304614846842
 20
-11.80842880373719
 30
0.0
  0
VERTEX
  5
561
  8
STANDARD
 10
4.59945167438662
 20
-11.8203655479361
 30
0.0
  0
VERTEX
  5
562
  8
STANDARD
 10
4.711757194328323
 20
-11.8451878269399
 30
0.0
  0
VERTEX
  5
563
  8
STANDARD
 10
4.815221174671954
 20
-11.88289564074858
 30
0.0
  0
VERTEX
  5
564
  8
STANDARD
 10
4.909843615417512
 20
-11.93348898936213
 30
0.0
  0
VERTEX
  5
565
  8
STANDARD
 10
4.998402341235419
 20
-11.99785982642528
 30
0.0
  0
VERTEX
  5
566
  8
STANDARD
 10
5.083675176796092
 20
-12.07690010558273
 30
0.0
  0
VERTEX
  5
567
  8
STANDARD
 10
5.165662122099533
 20
-12.17060982683449
 30
0.0
  0
VERTEX
  5
568
  8
STANDARD
 10
5.24436317714574
 20
-12.27898899018055
 30
0.0
  0
VERTEX
  5
569
  8
STANDARD
 10
4.973398771426819
 20
-12.46705295001007
 30
0.0
  0
VERTEX
  5
56A
  8
STANDARD
 10
4.849863906417156
 20
-12.31751441031692
 30
0.0
  0
VERTEX
  5
56B
  8
STANDARD
 10
4.788369244352705
 20
-12.26002227975614
 30
0.0
  0
VERTEX
  5
56C
  8
STANDARD
 10
4.727056429248505
 20
-12.21404824205255
 30
0.0
  0
VERTEX
  5
56D
  8
STANDARD
 10
4.662295559836092
 20
-12.17815583136594
 30
0.0
  0
VERTEX
  5
56E
  8
STANDARD
 10
4.590456734846994
 20
-12.15090858185606
 30
0.0
  0
VERTEX
  5
56F
  8
STANDARD
 10
4.511539954281214
 20
-12.13230649352292
 30
0.0
  0
VERTEX
  5
570
  8
STANDARD
 10
4.42554521813875
 20
-12.12234956636652
 30
0.0
  0
VERTEX
  5
571
  8
STANDARD
 10
4.335317004166472
 20
-12.12160466763359
 30
0.0
  0
VERTEX
  5
572
  8
STANDARD
 10
4.243699790111247
 20
-12.13063866457089
 30
0.0
  0
VERTEX
  5
573
  8
STANDARD
 10
4.150693575973074
 20
-12.14945155717841
 30
0.0
  0
VERTEX
  5
574
  8
STANDARD
 10
4.056298361751955
 20
-12.17804334545615
 30
0.0
  0
VERTEX
  5
575
  8
STANDARD
 10
3.94773936321376
 20
-12.22115334497542
 30
0.0
  0
VERTEX
  5
576
  8
STANDARD
 10
3.84993501619242
 20
-12.2702490299655
 30
0.0
  0
VERTEX
  5
577
  8
STANDARD
 10
3.762885320687933
 20
-12.3253304004264
 30
0.0
  0
VERTEX
  5
578
  8
STANDARD
 10
3.6865902767003
 20
-12.38639745635811
 30
0.0
  0
VERTEX
  5
579
  8
STANDARD
 10
3.620646680101532
 20
-12.45178246008322
 30
0.0
  0
VERTEX
  5
57A
  8
STANDARD
 10
3.564651326763641
 20
-12.51981767392433
 30
0.0
  0
VERTEX
  5
57B
  8
STANDARD
 10
3.518604216686625
 20
-12.59050309788142
 30
0.0
  0
VERTEX
  5
57C
  8
STANDARD
 10
3.482505349870485
 20
-12.66383873195451
 30
0.0
  0
VERTEX
  5
57D
  8
STANDARD
 10
3.433561264694578
 20
-12.81474900549865
 30
0.0
  0
VERTEX
  5
57E
  8
STANDARD
 10
3.411227989909666
 20
-12.96883686960675
 30
0.0
  0
VERTEX
  5
57F
  8
STANDARD
 10
3.41101235770969
 20
-13.10295172045431
 30
0.0
  0
VERTEX
  5
580
  8
STANDARD
 10
3.424519097316424
 20
-13.23778466940139
 30
0.0
  0
VERTEX
  5
581
  8
STANDARD
 10
3.451748208729867
 20
-13.37333571644798
 30
0.0
  0
VERTEX
  5
582
  8
STANDARD
 10
3.49269969195002
 20
-13.50960486159409
 30
0.0
  0
VERTEX
  5
583
  8
STANDARD
 10
3.556461014067973
 20
-13.66860763714266
 30
0.0
  0
VERTEX
  5
584
  8
STANDARD
 10
3.629867204972683
 20
-13.80877161080233
 30
0.0
  0
VERTEX
  5
585
  8
STANDARD
 10
3.71291826466415
 20
-13.9300967825731
 30
0.0
  0
VERTEX
  5
586
  8
STANDARD
 10
3.805614193142374
 20
-14.03258315245497
 30
0.0
  0
VERTEX
  5
587
  8
STANDARD
 10
3.907162138032594
 20
-14.11602729660686
 30
0.0
  0
VERTEX
  5
588
  8
STANDARD
 10
4.016769246960047
 20
-14.18022579118767
 30
0.0
  0
VERTEX
  5
589
  8
STANDARD
 10
4.134435519924732
 20
-14.2251786361974
 30
0.0
  0
VERTEX
  5
58A
  8
STANDARD
 10
4.260160956926653
 20
-14.25088583163605
 30
0.0
  0
VERTEX
  5
58B
  8
STANDARD
 10
4.389223635245384
 20
-14.25949256222288
 30
0.0
  0
VERTEX
  5
58C
  8
STANDARD
 10
4.516901632160502
 20
-14.25314401267715
 30
0.0
  0
VERTEX
  5
58D
  8
STANDARD
 10
4.64319494767201
 20
-14.23184018299885
 30
0.0
  0
VERTEX
  5
58E
  8
STANDARD
 10
4.768103581779906
 20
-14.19558107318799
 30
0.0
  0
VERTEX
  5
58F
  8
STANDARD
 10
4.87357771340678
 20
-14.15259208331264
 30
0.0
  0
VERTEX
  5
590
  8
STANDARD
 10
4.974120756988539
 20
-14.0996365686455
 30
0.0
  0
VERTEX
  5
591
  8
STANDARD
 10
5.069732712525182
 20
-14.03671452918655
 30
0.0
  0
VERTEX
  5
592
  8
STANDARD
 10
5.160413580016711
 20
-13.96382596493581
 30
0.0
  0
VERTEX
  5
593
  8
STANDARD
 10
5.311023665288207
 20
-13.81403694695672
 30
0.0
  0
VERTEX
  5
594
  8
STANDARD
 10
5.366963286674121
 20
-13.74360841445282
 30
0.0
  0
VERTEX
  5
595
  8
STANDARD
 10
5.40999262722681
 20
-13.67615719960601
 30
0.0
  0
VERTEX
  5
596
  8
STANDARD
 10
5.245805725708352
 20
-13.20698113651833
 30
0.0
  0
SEQEND
  5
597
  8
STANDARD
  0
POLYLINE
  5
5C
  8
STANDARD
 66
     1
 10
0.0
 20
0.0
 30
0.0
 70
     1
  0
VERTEX
  5
598
  8
STANDARD
 10
7.889491553106794
 20
-13.04715509860726
 30
0.0
  0
VERTEX
  5
599
  8
STANDARD
 10
6.432631188590303
 20
-10.81236134684117
 30
0.0
  0
VERTEX
  5
59A
  8
STANDARD
 10
7.935659389864629
 20
-9.826506695713869
 30
0.0
  0
VERTEX
  5
59B
  8
STANDARD
 10
8.107580838064733
 20
-10.09023065141341
 30
0.0
  0
VERTEX
  5
59C
  8
STANDARD
 10
6.899383244522681
 20
-10.88270228705164
 30
0.0
  0
VERTEX
  5
59D
  8
STANDARD
 10
7.350552825348389
 20
-11.57478711877183
 30
0.0
  0
VERTEX
  5
59E
  8
STANDARD
 10
8.396137661017486
 20
-10.88897518755284
 30
0.0
  0
VERTEX
  5
59F
  8
STANDARD
 10
8.56805910921759
 20
-11.15269914325238
 30
0.0
  0
VERTEX
  5
5A0
  8
STANDARD
 10
7.522474273548493
 20
-11.83851107447138
 30
0.0
  0
VERTEX
  5
5A1
  8
STANDARD
 10
8.184322160839068
 20
-12.85377208311818
 30
0.0
  0
SEQEND
  5
5A2
  8
STANDARD
  0
POLYLINE
  5
5D
  8
STANDARD
 66
     1
 10
0.0
 20
0.0
 30
0.0
 70
     1
  0
VERTEX
  5
5A3
  8
STANDARD
 10
10.27104322489858
 20
-11.32590891533627
 30
0.0
  0
VERTEX
  5
5A4
  8
STANDARD
 10
8.312443915659063
 20
-9.51757133785198
 30
0.0
  0
VERTEX
  5
5A5
  8
STANDARD
 10
9.615967105186261
 20
-8.097042245788021
 30
0.0
  0
VERTEX
  5
5A6
  8
STANDARD
 10
9.847097855867322
 20
-8.310440882148718
 30
0.0
  0
VERTEX
  5
5A7
  8
STANDARD
 10
8.782144004800763
 20
-9.470986347929273
 30
0.0
  0
VERTEX
  5
5A8
  8
STANDARD
 10
9.38201514385161
 20
-10.02483598796368
 30
0.0
  0
VERTEX
  5
5A9
  8
STANDARD
 10
10.37933335772572
 20
-8.93799722035626
 30
0.0
  0
VERTEX
  5
5AA
  8
STANDARD
 10
10.60912809250689
 20
-9.150162338587705
 30
0.0
  0
VERTEX
  5
5AB
  8
STANDARD
 10
9.61180987863278
 20
-10.23700110619513
 30
0.0
  0
VERTEX
  5
5AC
  8
STANDARD
 10
10.27848181267815
 20
-10.85252665269217
 30
0.0
  0
VERTEX
  5
5AD
  8
STANDARD
 10
11.38524678491823
 20
-9.646417046222775
 30
0.0
  0
VERTEX
  5
5AE
  8
STANDARD
 10
11.61637753559929
 20
-9.859815682583472
 30
0.0
  0
SEQEND
  5
5AF
  8
STANDARD
  0
POLYLINE
  5
5E
  8
STANDARD
 66
     1
 10
0.0
 20
0.0
 30
0.0
 70
     1
  0
VERTEX
  5
5B0
  8
STANDARD
 10
12.21441949229587
 20
-9.12981762994102
 30
0.0
  0
VERTEX
  5
5B1
  8
STANDARD
 10
9.986472734896315
 20
-7.668479997430778
 30
0.0
  0
VERTEX
  5
5B2
  8
STANDARD
 10
11.03986426722066
 20
-6.052599112797729
 30
0.0
  0
VERTEX
  5
5B3
  8
STANDARD
 10
11.30278022153861
 20
-6.225048915269947
 30
0.0
  0
VERTEX
  5
5B4
  8
STANDARD
 10
10.44217921494156
 20
-7.54519310969657
 30
0.0
  0
VERTEX
  5
5B5
  8
STANDARD
 10
11.12454489984769
 20
-7.992765140390362
 30
0.0
  0
VERTEX
  5
5B6
  8
STANDARD
 10
11.93048879863547
 20
-6.756463822053189
 30
0.0
  0
VERTEX
  5
5B7
  8
STANDARD
 10
12.19188500755274
 20
-6.927916804857937
 30
0.0
  0
VERTEX
  5
5B8
  8
STANDARD
 10
11.38594110876497
 20
-8.16421812319511
 30
0.0
  0
VERTEX
  5
5B9
  8
STANDARD
 10
12.1442940637052
 20
-8.661631137262374
 30
0.0
  0
VERTEX
  5
5BA
  8
STANDARD
 10
13.03868310058436
 20
-7.289656801253182
 30
0.0
  0
VERTEX
  5
5BB
  8
STANDARD
 10
13.30159905490231
 20
-7.4621066037254
 30
0.0
  0
SEQEND
  5
5BC
  8
STANDARD
  0
POLYLINE
  5
5F
  8
STANDARD
 66
     1
 10
0.0
 20
0.0
 30
0.0
 70
     1
  0
VERTEX
  5
5BD
  8
STANDARD
 10
13.85654465337032
 20
-6.4521789135945
 30
0.0
  0
VERTEX
  5
5BE
  8
STANDARD
 10
11.34480553428992
 20
-5.567791667802874
 30
0.0
  0
VERTEX
  5
5BF
  8
STANDARD
 10
11.64852123123799
 20
-4.699901880772546
 30
0.0
  0
VERTEX
  5
5C0
  8
STANDARD
 10
11.74817985037693
 20
-4.443991033848332
 30
0.0
  0
VERTEX
  5
5C1
  8
STANDARD
 10
11.84147101797943
 20
-4.264017517163553
 30
0.0
  0
VERTEX
  5
5C2
  8
STANDARD
 10
11.9078456858445
 20
-4.170239808203964
 30
0.0
  0
VERTEX
  5
5C3
  8
STANDARD
 10
11.98150460214564
 20
-4.0879547797225
 30
0.0
  0
VERTEX
  5
5C4
  8
STANDARD
 10
12.06244776688288
 20
-4.017162431719161
 30
0.0
  0
VERTEX
  5
5C5
  8
STANDARD
 10
12.15067518005621
 20
-3.957862764193948
 30
0.0
  0
VERTEX
  5
5C6
  8
STANDARD
 10
12.27314755238737
 20
-3.896082824620192
 30
0.0
  0
VERTEX
  5
5C7
  8
STANDARD
 10
12.40289410954471
 20
-3.850979847346663
 30
0.0
  0
VERTEX
  5
5C8
  8
STANDARD
 10
12.53991485152823
 20
-3.82255383237336
 30
0.0
  0
VERTEX
  5
5C9
  8
STANDARD
 10
12.68420977833793
 20
-3.810804779700281
 30
0.0
  0
VERTEX
  5
5CA
  8
STANDARD
 10
12.83463856542303
 20
-3.815210532183135
 30
0.0
  0
VERTEX
  5
5CB
  8
STANDARD
 10
12.99006088823278
 20
-3.835248932677627
 30
0.0
  0
VERTEX
  5
5CC
  8
STANDARD
 10
13.15047674676716
 20
-3.870919981183757
 30
0.0
  0
VERTEX
  5
5CD
  8
STANDARD
 10
13.31588614102618
 20
-3.922223677701526
 30
0.0
  0
VERTEX
  5
5CE
  8
STANDARD
 10
13.45341393554929
 20
-3.975352664642116
 30
0.0
  0
VERTEX
  5
5CF
  8
STANDARD
 10
13.57987151223838
 20
-4.033994284367566
 30
0.0
  0
VERTEX
  5
5D0
  8
STANDARD
 10
13.69525887109346
 20
-4.098148536877877
 30
0.0
  0
VERTEX
  5
5D1
  8
STANDARD
 10
13.79957601211452
 20
-4.167815422173051
 30
0.0
  0
VERTEX
  5
5D2
  8
STANDARD
 10
13.89276590152447
 20
-4.240923857897355
 30
0.0
  0
VERTEX
  5
5D3
  8
STANDARD
 10
13.97477150554624
 20
-4.315402761695061
 30
0.0
  0
VERTEX
  5
5D4
  8
STANDARD
 10
14.04559282417982
 20
-4.391252133566169
 30
0.0
  0
VERTEX
  5
5D5
  8
STANDARD
 10
14.10522985742521
 20
-4.468471973510677
 30
0.0
  0
VERTEX
  5
5D6
  8
STANDARD
 10
14.19617061035127
 20
-4.623793688541515
 30
0.0
  0
VERTEX
  5
5D7
  8
STANDARD
 10
14.2287792156819
 20
-4.701088221358249
 30
0.0
  0
VERTEX
  5
5D8
  8
STANDARD
 10
14.25281330692426
 20
-4.778138537709192
 30
0.0
  0
VERTEX
  5
5D9
  8
STANDARD
 10
14.26891603306025
 20
-4.857403062671938
 30
0.0
  0
VERTEX
  5
5DA
  8
STANDARD
 10
14.27773054307177
 20
-4.94134022132408
 30
0.0
  0
VERTEX
  5
5DB
  8
STANDARD
 10
14.27349491472138
 20
-5.123232439696551
 30
0.0
  0
VERTEX
  5
5DC
  8
STANDARD
 10
14.23938874665104
 20
-5.323803792462984
 30
0.0
  0
VERTEX
  5
5DD
  8
STANDARD
 10
14.17469436363869
 20
-5.54304287925976
 30
0.0
  0
SEQEND
  5
5DE
  8
STANDARD
  0
POLYLINE
  5
60
  8
STANDARD
 66
     1
 10
0.0
 20
0.0
 30
0.0
 70
     1
  0
VERTEX
  5
5DF
  8
STANDARD
 10
13.67681381838641
 20
-6.014406813694241
 30
0.0
  0
VERTEX
  5
5E0
  8
STANDARD
 10
13.86505740877204
 20
-5.476487005099206
 30
0.0
  0
VERTEX
  5
5E1
  8
STANDARD
 10
13.93130079657865
 20
-5.25007191099392
 30
0.0
  0
VERTEX
  5
5E2
  8
STANDARD
 10
13.94870090847928
 20
-5.153950101460429
 30
0.0
  0
VERTEX
  5
5E3
  8
STANDARD
 10
13.95561996571147
 20
-5.069218783606374
 30
0.0
  0
VERTEX
  5
5E4
  8
STANDARD
 10
13.95368345204729
 20
-4.992951526937057
 30
0.0
  0
VERTEX
  5
5E5
  8
STANDARD
 10
13.94451685125883
 20
-4.922221900957789
 30
0.0
  0
VERTEX
  5
5E6
  8
STANDARD
 10
13.92812016334607
 20
-4.857029905668568
 30
0.0
  0
VERTEX
  5
5E7
  8
STANDARD
 10
13.90449338830902
 20
-4.797375541069393
 30
0.0
  0
VERTEX
  5
5E8
  8
STANDARD
 10
13.85989956544973
 20
-4.718756524905492
 30
0.0
  0
VERTEX
  5
5E9
  8
STANDARD
 10
13.80283995333486
 20
-4.643107757986702
 30
0.0
  0
VERTEX
  5
5EA
  8
STANDARD
 10
13.73331455196444
 20
-4.57042924031302
 30
0.0
  0
VERTEX
  5
5EB
  8
STANDARD
 10
13.65132336133845
 20
-4.50072097188445
 30
0.0
  0
VERTEX
  5
5EC
  8
STANDARD
 10
13.55635150682294
 20
-4.434766841330388
 30
0.0
  0
VERTEX
  5
5ED
  8
STANDARD
 10
13.44788411378396
 20
-4.373350737280234
 30
0.0
  0
VERTEX
  5
5EE
  8
STANDARD
 10
13.3259211822215
 20
-4.316472659733988
 30
0.0
  0
VERTEX
  5
5EF
  8
STANDARD
 10
13.19046271213558
 20
-4.264132608691649
 30
0.0
  0
VERTEX
  5
5F0
  8
STANDARD
 10
13.00199637408676
 20
-4.206882174219444
 30
0.0
  0
VERTEX
  5
5F1
  8
STANDARD
 10
12.83066284246998
 20
-4.173881939378598
 30
0.0
  0
VERTEX
  5
5F2
  8
STANDARD
 10
12.67646211728524
 20
-4.16513190416911
 30
0.0
  0
VERTEX
  5
5F3
  8
STANDARD
 10
12.53939419853254
 20
-4.180632068590979
 30
0.0
  0
VERTEX
  5
5F4
  8
STANDARD
 10
12.41839831970621
 20
-4.214821109874888
 30
0.0
  0
VERTEX
  5
5F5
  8
STANDARD
 10
12.3124137143006
 20
-4.262137705251523
 30
0.0
  0
VERTEX
  5
5F6
  8
STANDARD
 10
12.2214403823157
 20
-4.32258185472088
 30
0.0
  0
VERTEX
  5
5F7
  8
STANDARD
 10
12.14547832375151
 20
-4.396153558282962
 30
0.0
  0
VERTEX
  5
5F8
  8
STANDARD
 10
12.09596470492533
 20
-4.465464999984827
 30
0.0
  0
VERTEX
  5
5F9
  8
STANDARD
 10
12.04573423728513
 20
-4.557446986817488
 30
0.0
  0
VERTEX
  5
5FA
  8
STANDARD
 10
11.9947869208309
 20
-4.672099518780945
 30
0.0
  0
VERTEX
  5
5FB
  8
STANDARD
 10
11.94312275556265
 20
-4.809422595875196
 30
0.0
  0
VERTEX
  5
5FC
  8
STANDARD
 10
11.75788625128542
 20
-5.338749436281812
 30
0.0
  0
SEQEND
  5
5FD
  8
STANDARD
  0
POLYLINE
  5
61
  8
STANDARD
 66
     1
 10
0.0
 20
0.0
 30
0.0
 70
     1
  0
VERTEX
  5
5FE
  8
STANDARD
 10
-5.865694863270673
 20
4.774605887276787
 30
0.0
  0
VERTEX
  5
5FF
  8
STANDARD
 10
-5.865694863270673
 20
7.988891601562502
 30
0.0
  0
VERTEX
  5
600
  8
STANDARD
 10
-4.656926739779567
 20
7.988891601562502
 30
0.0
  0
VERTEX
  5
601
  8
STANDARD
 10
-4.375500164916131
 20
7.981217658861274
 30
0.0
  0
VERTEX
  5
602
  8
STANDARD
 10
-4.169484982928722
 20
7.958195830757591
 30
0.0
  0
VERTEX
  5
603
  8
STANDARD
 10
-4.056231278772514
 20
7.934009207779614
 30
0.0
  0
VERTEX
  5
604
  8
STANDARD
 10
-3.952540613567976
 20
7.900915329880569
 30
0.0
  0
VERTEX
  5
605
  8
STANDARD
 10
-3.858412987315109
 20
7.858914197060455
 30
0.0
  0
VERTEX
  5
606
  8
STANDARD
 10
-3.773848400013912
 20
7.808005809319274
 30
0.0
  0
VERTEX
  5
607
  8
STANDARD
 10
-3.697958855190301
 20
7.747093889128278
 30
0.0
  0
VERTEX
  5
608
  8
STANDARD
 10
-3.629856356370193
 20
7.675082158958721
 30
0.0
  0
VERTEX
  5
609
  8
STANDARD
 10
-3.569540903553587
 20
7.591970618810602
 30
0.0
  0
VERTEX
  5
60A
  8
STANDARD
 10
-3.517012496740485
 20
7.497759268683922
 30
0.0
  0
VERTEX
  5
60B
  8
STANDARD
 10
-3.474456973405553
 20
7.395531389128279
 30
0.0
  0
VERTEX
  5
60C
  8
STANDARD
 10
-3.444060171023459
 20
7.288370260693276
 30
0.0
  0
VERTEX
  5
60D
  8
STANDARD
 10
-3.425822089594202
 20
7.176275883378912
 30
0.0
  0
VERTEX
  5
60E
  8
STANDARD
 10
-3.419742729117783
 20
7.059248257185187
 30
0.0
  0
VERTEX
  5
60F
  8
STANDARD
 10
-3.423807020672243
 20
6.958716181931825
 30
0.0
  0
VERTEX
  5
610
  8
STANDARD
 10
-3.435999895335622
 20
6.862123854047398
 30
0.0
  0
VERTEX
  5
611
  8
STANDARD
 10
-3.456321353107922
 20
6.769471273531904
 30
0.0
  0
VERTEX
  5
612
  8
STANDARD
 10
-3.48477139398914
 20
6.680758440385343
 30
0.0
  0
VERTEX
  5
613
  8
STANDARD
 10
-3.521350017979278
 20
6.595985354607717
 30
0.0
  0
VERTEX
  5
614
  8
STANDARD
 10
-3.566057225078336
 20
6.515152016199025
 30
0.0
  0
VERTEX
  5
615
  8
STANDARD
 10
-3.618893015286314
 20
6.438258425159267
 30
0.0
  0
VERTEX
  5
616
  8
STANDARD
 10
-3.679857388603211
 20
6.365304581488442
 30
0.0
  0
VERTEX
  5
617
  8
STANDARD
 10
-3.75144356589857
 20
6.298757109626232
 30
0.0
  0
VERTEX
  5
618
  8
STANDARD
 10
-3.836144768041934
 20
6.241082634012317
 30
0.0
  0
VERTEX
  5
619
  8
STANDARD
 10
-3.933960995033304
 20
6.192281154646696
 30
0.0
  0
VERTEX
  5
61A
  8
STANDARD
 10
-4.044892246872678
 20
6.152352671529369
 30
0.0
  0
VERTEX
  5
61B
  8
STANDARD
 10
-4.168938523560056
 20
6.121297184660339
 30
0.0
  0
VERTEX
  5
61C
  8
STANDARD
 10
-4.306099825095439
 20
6.099114694039602
 30
0.0
  0
VERTEX
  5
61D
  8
STANDARD
 10
-4.456376151478826
 20
6.08580519966716
 30
0.0
  0
VERTEX
  5
61E
  8
STANDARD
 10
-4.61976750271022
 20
6.081368701543012
 30
0.0
  0
VERTEX
  5
61F
  8
STANDARD
 10
-5.441642393185186
 20
6.081368701543012
 30
0.0
  0
VERTEX
  5
620
  8
STANDARD
 10
-5.441642393185186
 20
4.774605887276787
 30
0.0
  0
SEQEND
  5
621
  8
STANDARD
  0
POLYLINE
  5
62
  8
STANDARD
 66
     1
 10
0.0
 20
0.0
 30
0.0
 70
     1
  0
VERTEX
  5
622
  8
STANDARD
 10
-5.441642393185186
 20
6.460680726489417
 30
0.0
  0
VERTEX
  5
623
  8
STANDARD
 10
-4.613209990286218
 20
6.460680726489417
 30
0.0
  0
VERTEX
  5
624
  8
STANDARD
 10
-4.422632285463648
 20
6.470273154865952
 30
0.0
  0
VERTEX
  5
625
  8
STANDARD
 10
-4.261836616233423
 20
6.499050439995557
 30
0.0
  0
VERTEX
  5
626
  8
STANDARD
 10
-4.130822982595542
 20
6.547012581878231
 30
0.0
  0
VERTEX
  5
627
  8
STANDARD
 10
-4.07648442912373
 20
6.578187974101969
 30
0.0
  0
VERTEX
  5
628
  8
STANDARD
 10
-4.029591384550005
 20
6.614159580513974
 30
0.0
  0
VERTEX
  5
629
  8
STANDARD
 10
-3.954043376831811
 20
6.698709984918573
 30
0.0
  0
VERTEX
  5
62A
  8
STANDARD
 10
-3.900080514175958
 20
6.798882344107814
 30
0.0
  0
VERTEX
  5
62B
  8
STANDARD
 10
-3.867702796582446
 20
6.914676658081699
 30
0.0
  0
VERTEX
  5
62C
  8
STANDARD
 10
-3.856910224051275
 20
7.046092926840226
 30
0.0
  0
VERTEX
  5
62D
  8
STANDARD
 10
-3.863262814212028
 20
7.143319040170961
 30
0.0
  0
VERTEX
  5
62E
  8
STANDARD
 10
-3.882320584694285
 20
7.233282314873748
 30
0.0
  0
VERTEX
  5
62F
  8
STANDARD
 10
-3.914083535498047
 20
7.315982750948587
 30
0.0
  0
VERTEX
  5
630
  8
STANDARD
 10
-3.958551666623312
 20
7.391420348395478
 30
0.0
  0
VERTEX
  5
631
  8
STANDARD
 10
-4.013402525753249
 20
7.457128482774742
 30
0.0
  0
VERTEX
  5
632
  8
STANDARD
 10
-4.076313660571022
 20
7.510640529646697
 30
0.0
  0
VERTEX
  5
633
  8
STANDARD
 10
-4.147285071076631
 20
7.551956489011342
 30
0.0
  0
VERTEX
  5
634
  8
STANDARD
 10
-4.226316757270077
 20
7.58107636086868
 30
0.0
  0
VERTEX
  5
635
  8
STANDARD
 10
-4.378778921128132
 20
7.602453772679244
 30
0.0
  0
VERTEX
  5
636
  8
STANDARD
 10
-4.621953340184887
 20
7.609579576616098
 30
0.0
  0
VERTEX
  5
637
  8
STANDARD
 10
-5.441642393185186
 20
7.609579576616098
 30
0.0
  0
SEQEND
  5
638
  8
STANDARD
  0
POLYLINE
  5
63
  8
STANDARD
 66
     1
 10
0.0
 20
0.0
 30
0.0
 70
     1
  0
VERTEX
  5
639
  8
STANDARD
 10
-0.777065222244821
 20
7.988891601562502
 30
0.0
  0
VERTEX
  5
63A
  8
STANDARD
 10
-0.3530127521593334
 20
7.988891601562502
 30
0.0
  0
VERTEX
  5
63B
  8
STANDARD
 10
-0.3530127521593334
 20
6.131797467865367
 30
0.0
  0
VERTEX
  5
63C
  8
STANDARD
 10
-0.3598434942676693
 20
5.901990290901811
 30
0.0
  0
VERTEX
  5
63D
  8
STANDARD
 10
-0.3803357205926767
 20
5.697123427717248
 30
0.0
  0
VERTEX
  5
63E
  8
STANDARD
 10
-0.4144894311343558
 20
5.517196878311672
 30
0.0
  0
VERTEX
  5
63F
  8
STANDARD
 10
-0.4623046258927064
 20
5.36221064268509
 30
0.0
  0
VERTEX
  5
640
  8
STANDARD
 10
-0.5279480575538135
 20
5.226340746466029
 30
0.0
  0
VERTEX
  5
641
  8
STANDARD
 10
-0.6155864788037622
 20
5.103763215283024
 30
0.0
  0
VERTEX
  5
642
  8
STANDARD
 10
-0.7252198896425521
 20
4.994478049136076
 30
0.0
  0
VERTEX
  5
643
  8
STANDARD
 10
-0.8568482900701833
 20
4.89848524802518
 30
0.0
  0
VERTEX
  5
644
  8
STANDARD
 10
-0.9309447650903562
 20
4.856604020559773
 30
0.0
  0
VERTEX
  5
645
  8
STANDARD
 10
-1.010608294928823
 20
4.820306956756421
 30
0.0
  0
VERTEX
  5
646
  8
STANDARD
 10
-1.186636519060637
 20
4.764465320135879
 30
0.0
  0
VERTEX
  5
647
  8
STANDARD
 10
-1.384932962465626
 20
4.730960338163554
 30
0.0
  0
VERTEX
  5
648
  8
STANDARD
 10
-1.605497625143789
 20
4.719792010839446
 30
0.0
  0
VERTEX
  5
649
  8
STANDARD
 10
-1.820392771872034
 20
4.729521473907074
 30
0.0
  0
VERTEX
  5
64A
  8
STANDARD
 10
-2.014795692275272
 20
4.758709863109958
 30
0.0
  0
VERTEX
  5
64B
  8
STANDARD
 10
-2.188706386353501
 20
4.807357178448099
 30
0.0
  0
VERTEX
  5
64C
  8
STANDARD
 10
-2.342124854106724
 20
4.875463419921496
 30
0.0
  0
VERTEX
  5
64D
  8
STANDARD
 10
-2.475051095534939
 20
4.962000827346948
 30
0.0
  0
VERTEX
  5
64E
  8
STANDARD
 10
-2.587485110638147
 20
5.065941640541258
 30
0.0
  0
VERTEX
  5
64F
  8
STANDARD
 10
-2.679426899416347
 20
5.187285859504422
 30
0.0
  0
VERTEX
  5
650
  8
STANDARD
 10
-2.75087646186954
 20
5.326033484236445
 30
0.0
  0
VERTEX
  5
651
  8
STANDARD
 10
-2.804429479998892
 20
5.486980728925589
 30
0.0
  0
VERTEX
  5
652
  8
STANDARD
 10
-2.842681635805573
 20
5.674923807760124
 30
0.0
  0
VERTEX
  5
653
  8
STANDARD
 10
-2.865632929289581
 20
5.88986272074005
 30
0.0
  0
VERTEX
  5
654
  8
STANDARD
 10
-2.873283360450917
 20
6.131797467865367
 30
0.0
  0
VERTEX
  5
655
  8
STANDARD
 10
-2.873283360450917
 20
7.988891601562502
 30
0.0
  0
VERTEX
  5
656
  8
STANDARD
 10
-2.449230890365429
 20
7.988891601562502
 30
0.0
  0
VERTEX
  5
657
  8
STANDARD
 10
-2.449230890365429
 20
6.133990022922861
 30
0.0
  0
VERTEX
  5
658
  8
STANDARD
 10
-2.444381063468511
 20
5.938373001387097
 30
0.0
  0
VERTEX
  5
659
  8
STANDARD
 10
-2.429831582777756
 20
5.770299952761098
 30
0.0
  0
VERTEX
  5
65A
  8
STANDARD
 10
-2.405582448293164
 20
5.629770877044864
 30
0.0
  0
VERTEX
  5
65B
  8
STANDARD
 10
-2.371633660014735
 20
5.516785774238393
 30
0.0
  0
VERTEX
  5
65C
  8
STANDARD
 10
-2.325867687888885
 20
5.423259597567179
 30
0.0
  0
VERTEX
  5
65D
  8
STANDARD
 10
-2.26616700186203
 20
5.341107300256713
 30
0.0
  0
VERTEX
  5
65E
  8
STANDARD
 10
-2.19253160193417
 20
5.270328882306996
 30
0.0
  0
VERTEX
  5
65F
  8
STANDARD
 10
-2.104961488105304
 20
5.210924343718027
 30
0.0
  0
VERTEX
  5
660
  8
STANDARD
 10
-2.005164345902518
 20
5.163921444673007
 30
0.0
  0
VERTEX
  5
661
  8
STANDARD
 10
-1.894847860852895
 20
5.130347945355135
 30
0.0
  0
VERTEX
  5
662
  8
STANDARD
 10
-1.774012032956434
 20
5.110203845764413
 30
0.0
  0
VERTEX
  5
663
  8
STANDARD
 10
-1.642656862213136
 20
5.103489145900838
 30
0.0
  0
VERTEX
  5
664
  8
STANDARD
 10
-1.425575878010224
 20
5.116781510936893
 30
0.0
  0
VERTEX
  5
665
  8
STANDARD
 10
-1.329638105098647
 20
5.133396967231963
 30
0.0
  0
VERTEX
  5
666
  8
STANDARD
 10
-1.242102144980324
 20
5.15665860604506
 30
0.0
  0
VERTEX
  5
667
  8
STANDARD
 10
-1.162967997655253
 20
5.186566427376184
 30
0.0
  0
VERTEX
  5
668
  8
STANDARD
 10
-1.092235663123436
 20
5.223120431225336
 30
0.0
  0
VERTEX
  5
669
  8
STANDARD
 10
-1.029905141384871
 20
5.266320617592516
 30
0.0
  0
VERTEX
  5
66A
  8
STANDARD
 10
-0.9759764324395601
 20
5.316166986477723
 30
0.0
  0
VERTEX
  5
66B
  8
STANDARD
 10
-0.9293566175501682
 20
5.375468749048372
 30
0.0
  0
VERTEX
  5
66C
  8
STANDARD
 10
-0.8889527779793618
 20
5.447035116471876
 30
0.0
  0
VERTEX
  5
66D
  8
STANDARD
 10
-0.8547649137271409
 20
5.530866088748236
 30
0.0
  0
VERTEX
  5
66E
  8
STANDARD
 10
-0.8267930247935058
 20
5.626961665877451
 30
0.0
  0
VERTEX
  5
66F
  8
STANDARD
 10
-0.8050371111784562
 20
5.73532184785952
 30
0.0
  0
VERTEX
  5
670
  8
STANDARD
 10
-0.7894971728819922
 20
5.855946634694445
 30
0.0
  0
VERTEX
  5
671
  8
STANDARD
 10
-0.777065222244821
 20
6.133990022922861
 30
0.0
  0
SEQEND
  5
672
  8
STANDARD
  0
POLYLINE
  5
64
  8
STANDARD
 66
     1
 10
0.0
 20
0.0
 30
0.0
 70
     1
  0
VERTEX
  5
673
  8
STANDARD
 10
0.2087474788302046
 20
5.807299319356305
 30
0.0
  0
VERTEX
  5
674
  8
STANDARD
 10
0.6087557366943502
 20
5.842380200276203
 30
0.0
  0
VERTEX
  5
675
  8
STANDARD
 10
0.6276768923344407
 20
5.727202542412239
 30
0.0
  0
VERTEX
  5
676
  8
STANDARD
 10
0.6560244720840342
 20
5.62285062514465
 30
0.0
  0
VERTEX
  5
677
  8
STANDARD
 10
0.6937984759431313
 20
5.529324448473435
 30
0.0
  0
VERTEX
  5
678
  8
STANDARD
 10
0.7409989039117318
 20
5.446624012398596
 30
0.0
  0
VERTEX
  5
679
  8
STANDARD
 10
0.8000848231488367
 20
5.373036383281464
 30
0.0
  0
VERTEX
  5
67A
  8
STANDARD
 10
0.8735153008134466
 20
5.306848627483375
 30
0.0
  0
VERTEX
  5
67B
  8
STANDARD
 10
0.9612903369055621
 20
5.248060745004326
 30
0.0
  0
VERTEX
  5
67C
  8
STANDARD
 10
1.063409931425183
 20
5.196672735844318
 30
0.0
  0
VERTEX
  5
67D
  8
STANDARD
 10
1.176117176212724
 20
5.154945672406392
 30
0.0
  0
VERTEX
  5
67E
  8
STANDARD
 10
1.2956551631086
 20
5.125140627093587
 30
0.0
  0
VERTEX
  5
67F
  8
STANDARD
 10
1.422023892112813
 20
5.107257599905904
 30
0.0
  0
VERTEX
  5
680
  8
STANDARD
 10
1.555223363225361
 20
5.101296590843344
 30
0.0
  0
VERTEX
  5
681
  8
STANDARD
 10
1.672985357173071
 20
5.105818735649424
 30
0.0
  0
VERTEX
  5
682
  8
STANDARD
 10
1.783643379328111
 20
5.119385170067667
 30
0.0
  0
VERTEX
  5
683
  8
STANDARD
 10
1.887197429690482
 20
5.14199589409807
 30
0.0
  0
VERTEX
  5
684
  8
STANDARD
 10
1.983647508260184
 20
5.173650907740635
 30
0.0
  0
VERTEX
  5
685
  8
STANDARD
 10
2.070602855299299
 20
5.213185416121068
 30
0.0
  0
VERTEX
  5
686
  8
STANDARD
 10
2.14567271106991
 20
5.259434624365074
 30
0.0
  0
VERTEX
  5
687
  8
STANDARD
 10
2.208857075572016
 20
5.312398532472656
 30
0.0
  0
VERTEX
  5
688
  8
STANDARD
 10
2.260155948805618
 20
5.372077140443811
 30
0.0
  0
VERTEX
  5
689
  8
STANDARD
 10
2.299842560455049
 20
5.436551962603234
 30
0.0
  0
VERTEX
  5
68A
  8
STANDARD
 10
2.328190140204643
 20
5.503904513275618
 30
0.0
  0
VERTEX
  5
68B
  8
STANDARD
 10
2.345198688054399
 20
5.574134792460962
 30
0.0
  0
VERTEX
  5
68C
  8
STANDARD
 10
2.350868204004318
 20
5.647242800159267
 30
0.0
  0
VERTEX
  5
68D
  8
STANDARD
 10
2.345403610317649
 20
5.720487842548665
 30
0.0
  0
VERTEX
  5
68E
  8
STANDARD
 10
2.329009829257643
 20
5.788936670749795
 30
0.0
  0
VERTEX
  5
68F
  8
STANDARD
 10
2.3016868608243
 20
5.852589284762658
 30
0.0
  0
VERTEX
  5
690
  8
STANDARD
 10
2.26343470501762
 20
5.911445684587253
 30
0.0
  0
VERTEX
  5
691
  8
STANDARD
 10
2.212613983731601
 20
5.965642904914675
 30
0.0
  0
VERTEX
  5
692
  8
STANDARD
 10
2.147585318860244
 20
6.015317980436016
 30
0.0
  0
VERTEX
  5
693
  8
STANDARD
 10
2.068348710403548
 20
6.060470911151276
 30
0.0
  0
VERTEX
  5
694
  8
STANDARD
 10
1.974904158361514
 20
6.101101697060455
 30
0.0
  0
VERTEX
  5
695
  8
STANDARD
 10
1.767796057636772
 20
6.165508001874332
 30
0.0
  0
VERTEX
  5
696
  8
STANDARD
 10
1.404400577473307
 20
6.257869383671252
 30
0.0
  0
VERTEX
  5
697
  8
STANDARD
 10
1.02898299119917
 20
6.361193540755641
 30
0.0
  0
VERTEX
  5
698
  8
STANDARD
 10
0.8908653857686197
 20
6.410594546894796
 30
0.0
  0
VERTEX
  5
699
  8
STANDARD
 10
0.7858085721424148
 20
6.458488171431923
 30
0.0
  0
VERTEX
  5
69A
  8
STANDARD
 10
0.6783609987782924
 20
6.522414854826973
 30
0.0
  0
VERTEX
  5
69B
  8
STANDARD
 10
0.5855312135260087
 20
6.593604376849971
 30
0.0
  0
VERTEX
  5
69C
  8
STANDARD
 10
0.5073192163855634
 20
6.672056737500916
 30
0.0
  0
VERTEX
  5
69D
  8
STANDARD
 10
0.443725007356957
 20
6.757771936779808
 30
0.0
  0
VERTEX
  5
69E
  8
STANDARD
 10
0.3944753567558557
 20
6.849790731848996
 30
0.0
  0
VERTEX
  5
69F
  8
STANDARD
 10
0.3592970348979262
 20
6.947153879870824
 30
0.0
  0
VERTEX
  5
6A0
  8
STANDARD
 10
0.3381900417831685
 20
7.049861380845294
 30
0.0
  0
VERTEX
  5
6A1
  8
STANDARD
 10
0.3311543774115826
 20
7.157913234772403
 30
0.0
  0
VERTEX
  5
6A2
  8
STANDARD
 10
0.3397611124680857
 20
7.277613037442448
 30
0.0
  0
VERTEX
  5
6A3
  8
STANDARD
 10
0.365581317637595
 20
7.393338834070785
 30
0.0
  0
VERTEX
  5
6A4
  8
STANDARD
 10
0.4086149929201107
 20
7.505090624657415
 30
0.0
  0
VERTEX
  5
6A5
  8
STANDARD
 10
0.4688621383156326
 20
7.612868409202338
 30
0.0
  0
VERTEX
  5
6A6
  8
STANDARD
 10
0.5456396796133273
 20
7.712287077590567
 30
0.0
  0
VERTEX
  5
6A7
  8
STANDARD
 10
0.638264542602361
 20
7.798961519707113
 30
0.0
  0
VERTEX
  5
6A8
  8
STANDARD
 10
0.7467367272827339
 20
7.872891735551978
 30
0.0
  0
VERTEX
  5
6A9
  8
STANDARD
 10
0.8710562336544458
 20
7.93407772512516
 30
0.0
  0
VERTEX
  5
6AA
  8
STANDARD
 10
1.006988001610329
 20
7.982039867007835
 30
0.0
  0
VERTEX
  5
6AB
  8
STANDARD
 10
1.150296971043214
 20
8.016298539781173
 30
0.0
  0
VERTEX
  5
6AC
  8
STANDARD
 10
1.300983141953102
 20
8.036853743445175
 30
0.0
  0
VERTEX
  5
6AD
  8
STANDARD
 10
1.459046514339993
 20
8.043705477999843
 30
0.0
  0
VERTEX
  5
6AE
  8
STANDARD
 10
1.631932597101973
 20
8.036511156717442
 30
0.0
  0
VERTEX
  5
6AF
  8
STANDARD
 10
1.794299337017115
 20
8.014928192870238
 30
0.0
  0
VERTEX
  5
6B0
  8
STANDARD
 10
1.94614673408542
 20
7.978956586458233
 30
0.0
  0
VERTEX
  5
6B1
  8
STANDARD
 10
2.087474788306888
 20
7.928596337481427
 30
0.0
  0
VERTEX
  5
6B2
  8
STANDARD
 10
2.215687817680352
 20
7.864258550013096
 30
0.0
  0
VERTEX
  5
6B3
  8
STANDARD
 10
2.328190140204643
 20
7.786354328126524
 30
0.0
  0
VERTEX
  5
6B4
  8
STANDARD
 10
2.424981755879761
 20
7.69488367182171
 30
0.0
  0
VERTEX
  5
6B5
  8
STANDARD
 10
2.506062664705707
 20
7.589846581098655
 30
0.0
  0
VERTEX
  5
6B6
  8
STANDARD
 10
2.570818099892731
 20
7.474326336506957
 30
0.0
  0
VERTEX
  5
6B7
  8
STANDARD
 10
2.618633294651082
 20
7.351406218596218
 30
0.0
  0
VERTEX
  5
6B8
  8
STANDARD
 10
2.64950824898076
 20
7.221086227366438
 30
0.0
  0
VERTEX
  5
6B9
  8
STANDARD
 10
2.663442962881764
 20
7.083366362817618
 30
0.0
  0
VERTEX
  5
6BA
  8
STANDARD
 10
2.256877192593617
 20
7.052670592012706
 30
0.0
  0
VERTEX
  5
6BB
  8
STANDARD
 10
2.230715450318691
 20
7.195734809514168
 30
0.0
  0
VERTEX
  5
6BC
  8
STANDARD
 10
2.185017785613924
 20
7.320162309026934
 30
0.0
  0
VERTEX
  5
6BD
  8
STANDARD
 10
2.119784198479318
 20
7.425953090551004
 30
0.0
  0
VERTEX
  5
6BE
  8
STANDARD
 10
2.035014688914869
 20
7.513107154086377
 30
0.0
  0
VERTEX
  5
6BF
  8
STANDARD
 10
1.929206493656748
 20
7.581213395559773
 30
0.0
  0
VERTEX
  5
6C0
  8
STANDARD
 10
1.800856849441118
 20
7.629860710897915
 30
0.0
  0
VERTEX
  5
6C1
  8
STANDARD
 10
1.649965756267979
 20
7.659049100100799
 30
0.0
  0
VERTEX
  5
6C2
  8
STANDARD
 10
1.476533214137333
 20
7.668778563168427
 30
0.0
  0
VERTEX
  5
6C3
  8
STANDARD
 10
1.297226233793518
 20
7.659939825592907
 30
0.0
  0
VERTEX
  5
6C4
  8
STANDARD
 10
1.144012688303545
 20
7.633423612866342
 30
0.0
  0
VERTEX
  5
6C5
  8
STANDARD
 10
1.016892577667416
 20
7.589229924988736
 30
0.0
  0
VERTEX
  5
6C6
  8
STANDARD
 10
0.9158659018851288
 20
7.527358761960086
 30
0.0
  0
VERTEX
  5
6C7
  8
STANDARD
 10
0.8388834383241841
 20
7.453017442041941
 30
0.0
  0
VERTEX
  5
6C8
  8
STANDARD
 10
0.7838959643520808
 20
7.371413283495849
 30
0.0
  0
VERTEX
  5
6C9
  8
STANDARD
 10
0.7509034799688187
 20
7.282546286321809
 30
0.0
  0
VERTEX
  5
6CA
  8
STANDARD
 10
0.7399059851743981
 20
7.18641645051982
 30
0.0
  0
VERTEX
  5
6CB
  8
STANDARD
 10
0.747693031177901
 20
7.103647497099434
 30
0.0
  0
VERTEX
  5
6CC
  8
STANDARD
 10
0.7710541691884094
 20
7.028552486380276
 30
0.0
  0
VERTEX
  5
6CD
  8
STANDARD
 10
0.8099893992059236
 20
6.961131418362347
 30
0.0
  0
VERTEX
  5
6CE
  8
STANDARD
 10
0.8644987212304435
 20
6.901384293045644
 30
0.0
  0
VERTEX
  5
6CF
  8
STANDARD
 10
0.9503611495322246
 20
6.845131552351821
 30
0.0
  0
VERTEX
  5
6D0
  8
STANDARD
 10
1.085541535856191
 20
6.788193638202533
 30
0.0
  0
VERTEX
  5
6D1
  8
STANDARD
 10
1.270039880202341
 20
6.730570550597777
 30
0.0
  0
VERTEX
  5
6D2
  8
STANDARD
 10
1.503856182570676
 20
6.672262289537556
 30
0.0
  0
VERTEX
  5
6D3
  8
STANDARD
 10
1.939657529082502
 20
6.562360467280685
 30
0.0
  0
VERTEX
  5
6D4
  8
STANDARD
 10
2.096696290153142
 20
6.512959461141532
 30
0.0
  0
VERTEX
  5
6D5
  8
STANDARD
 10
2.213160443100267
 20
6.467258391661898
 30
0.0
  0
VERTEX
  5
6D6
  8
STANDARD
 10
2.343900847053815
 20
6.398261424696395
 30
0.0
  0
VERTEX
  5
6D7
  8
STANDARD
 10
2.456334862157023
 20
6.320631272192009
 30
0.0
  0
VERTEX
  5
6D8
  8
STANDARD
 10
2.550462488409891
 20
6.234367934148743
 30
0.0
  0
VERTEX
  5
6D9
  8
STANDARD
 10
2.626283725812418
 20
6.139471410566594
 30
0.0
  0
VERTEX
  5
6DA
  8
STANDARD
 10
2.684618263417606
 20
6.036489840209939
 30
0.0
  0
VERTEX
  5
6DB
  8
STANDARD
 10
2.726285790278454
 20
5.925971361843148
 30
0.0
  0
VERTEX
  5
6DC
  8
STANDARD
 10
2.751286306394964
 20
5.807915975466225
 30
0.0
  0
VERTEX
  5
6DD
  8
STANDARD
 10
2.759619811767133
 20
5.682323681079165
 30
0.0
  0
VERTEX
  5
6DE
  8
STANDARD
 10
2.750466617341964
 20
5.555909178545546
 30
0.0
  0
VERTEX
  5
6DF
  8
STANDARD
 10
2.723007034066454
 20
5.433194612671448
 30
0.0
  0
VERTEX
  5
6E0
  8
STANDARD
 10
2.677241061940604
 20
5.314179983456869
 30
0.0
  0
VERTEX
  5
6E1
  8
STANDARD
 10
2.613168700964414
 20
5.198865290901812
 30
0.0
  0
VERTEX
  5
6E2
  8
STANDARD
 10
2.531951177296301
 20
5.091704162466809
 30
0.0
  0
VERTEX
  5
6E3
  8
STANDARD
 10
2.434749717094682
 20
4.997150225612394
 30
0.0
  0
VERTEX
  5
6E4
  8
STANDARD
 10
2.321564320359558
 20
4.915203480338569
 30
0.0
  0
VERTEX
  5
6E5
  8
STANDARD
 10
2.192394987090927
 20
4.845863926645332
 30
0.0
  0
VERTEX
  5
6E6
  8
STANDARD
 10
2.050930318027292
 20
4.790707463480256
 30
0.0
  0
VERTEX
  5
6E7
  8
STANDARD
 10
1.900858913907154
 20
4.751309989790918
 30
0.0
  0
VERTEX
  5
6E8
  8
STANDARD
 10
1.742180774730513
 20
4.727671505577314
 30
0.0
  0
VERTEX
  5
6E9
  8
STANDARD
 10
1.574895900497369
 20
4.719792010839446
 30
0.0
  0
VERTEX
  5
6EA
  8
STANDARD
 10
1.366216729087709
 20
4.727740022922861
 30
0.0
  0
VERTEX
  5
6EB
  8
STANDARD
 10
1.175160872317556
 20
4.751584059173104
 30
0.0
  0
VERTEX
  5
6EC
  8
STANDARD
 10
1.00172833018691
 20
4.791324119590176
 30
0.0
  0
VERTEX
  5
6ED
  8
STANDARD
 10
0.8459191026957699
 20
4.846960204174079
 30
0.0
  0
VERTEX
  5
6EE
  8
STANDARD
 10
0.7068451933700527
 20
4.918560830270357
 30
0.0
  0
VERTEX
  5
6EF
  8
STANDARD
 10
0.5836186057356745
 20
5.006194515224556
 30
0.0
  0
VERTEX
  5
6F0
  8
STANDARD
 10
0.4762393397926354
 20
5.109861259036679
 30
0.0
  0
VERTEX
  5
6F1
  8
STANDARD
 10
0.3847073955409355
 20
5.229561061706723
 30
0.0
  0
VERTEX
  5
6F2
  8
STANDARD
 10
0.3110036881919919
 20
5.361456951884076
 30
0.0
  0
VERTEX
  5
6F3
  8
STANDARD
 10
0.2571091329572223
 20
5.501711958218125
 30
0.0
  0
VERTEX
  5
6F4
  8
STANDARD
 10
0.2230237298366265
 20
5.650326080708867
 30
0.0
  0
SEQEND
  5
6F5
  8
STANDARD
  0
POLYLINE
  5
65
  8
STANDARD
 66
     1
 10
0.0
 20
0.0
 30
0.0
 70
     1
  0
VERTEX
  5
6F6
  8
STANDARD
 10
3.351981767402014
 20
4.774605887276787
 30
0.0
  0
VERTEX
  5
6F7
  8
STANDARD
 10
3.351981767402014
 20
7.988891601562502
 30
0.0
  0
VERTEX
  5
6F8
  8
STANDARD
 10
3.776034237487502
 20
7.988891601562502
 30
0.0
  0
VERTEX
  5
6F9
  8
STANDARD
 10
3.776034237487502
 20
6.668973456951315
 30
0.0
  0
VERTEX
  5
6FA
  8
STANDARD
 10
5.441642393184108
 20
6.668973456951315
 30
0.0
  0
VERTEX
  5
6FB
  8
STANDARD
 10
5.441642393184108
 20
7.988891601562502
 30
0.0
  0
VERTEX
  5
6FC
  8
STANDARD
 10
5.865694863269596
 20
7.988891601562502
 30
0.0
  0
VERTEX
  5
6FD
  8
STANDARD
 10
5.865694863269596
 20
4.774605887276787
 30
0.0
  0
VERTEX
  5
6FE
  8
STANDARD
 10
5.441642393184108
 20
4.774605887276787
 30
0.0
  0
VERTEX
  5
6FF
  8
STANDARD
 10
5.441642393184108
 20
6.289661432004911
 30
0.0
  0
VERTEX
  5
700
  8
STANDARD
 10
3.776034237487502
 20
6.289661432004911
 30
0.0
  0
VERTEX
  5
701
  8
STANDARD
 10
3.776034237487502
 20
4.774605887276787
 30
0.0
  0
SEQEND
  5
702
  8
STANDARD
  0
POLYLINE
  5
66
  8
STANDARD
 66
     1
 10
0.0
 20
0.0
 30
0.0
 70
     1
  0
VERTEX
  5
703
  8
STANDARD
 10
-5.346558463037151
 20
-8.0551300316474
 30
0.0
  0
VERTEX
  5
704
  8
STANDARD
 10
-5.346558463037151
 20
-4.840844317361684
 30
0.0
  0
VERTEX
  5
705
  8
STANDARD
 10
-4.137790339546044
 20
-4.840844317361684
 30
0.0
  0
VERTEX
  5
706
  8
STANDARD
 10
-3.856363764682609
 20
-4.848518260062912
 30
0.0
  0
VERTEX
  5
707
  8
STANDARD
 10
-3.6503485826952
 20
-4.871540088166596
 30
0.0
  0
VERTEX
  5
708
  8
STANDARD
 10
-3.537094878538992
 20
-4.895726711144573
 30
0.0
  0
VERTEX
  5
709
  8
STANDARD
 10
-3.433404213334454
 20
-4.928820589043618
 30
0.0
  0
VERTEX
  5
70A
  8
STANDARD
 10
-3.339276587081587
 20
-4.970821721863731
 30
0.0
  0
VERTEX
  5
70B
  8
STANDARD
 10
-3.254711999780389
 20
-5.021730109604912
 30
0.0
  0
VERTEX
  5
70C
  8
STANDARD
 10
-3.178822454956779
 20
-5.082642029795908
 30
0.0
  0
VERTEX
  5
70D
  8
STANDARD
 10
-3.11071995613667
 20
-5.154653759965465
 30
0.0
  0
VERTEX
  5
70E
  8
STANDARD
 10
-3.050404503320065
 20
-5.237765300113585
 30
0.0
  0
VERTEX
  5
70F
  8
STANDARD
 10
-2.997876096506963
 20
-5.331976650240266
 30
0.0
  0
VERTEX
  5
710
  8
STANDARD
 10
-2.955320573172031
 20
-5.434204529795909
 30
0.0
  0
VERTEX
  5
711
  8
STANDARD
 10
-2.924923770789936
 20
-5.541365658230911
 30
0.0
  0
VERTEX
  5
712
  8
STANDARD
 10
-2.90668568936068
 20
-5.653460035545275
 30
0.0
  0
VERTEX
  5
713
  8
STANDARD
 10
-2.900606328884261
 20
-5.770487661738999
 30
0.0
  0
VERTEX
  5
714
  8
STANDARD
 10
-2.904670620438721
 20
-5.871019736992361
 30
0.0
  0
VERTEX
  5
715
  8
STANDARD
 10
-2.9168634951021
 20
-5.967612064876789
 30
0.0
  0
VERTEX
  5
716
  8
STANDARD
 10
-2.937184952874399
 20
-6.060264645392284
 30
0.0
  0
VERTEX
  5
717
  8
STANDARD
 10
-2.965634993755618
 20
-6.148977478538844
 30
0.0
  0
VERTEX
  5
718
  8
STANDARD
 10
-3.002213617745756
 20
-6.233750564316471
 30
0.0
  0
VERTEX
  5
719
  8
STANDARD
 10
-3.046920824844814
 20
-6.314583902725163
 30
0.0
  0
VERTEX
  5
71A
  8
STANDARD
 10
-3.099756615052792
 20
-6.391477493764921
 30
0.0
  0
VERTEX
  5
71B
  8
STANDARD
 10
-3.160720988369689
 20
-6.464431337435744
 30
0.0
  0
VERTEX
  5
71C
  8
STANDARD
 10
-3.232307165665047
 20
-6.530978809297954
 30
0.0
  0
VERTEX
  5
71D
  8
STANDARD
 10
-3.317008367808412
 20
-6.588653284911869
 30
0.0
  0
VERTEX
  5
71E
  8
STANDARD
 10
-3.414824594799781
 20
-6.637454764277491
 30
0.0
  0
VERTEX
  5
71F
  8
STANDARD
 10
-3.525755846639155
 20
-6.677383247394816
 30
0.0
  0
VERTEX
  5
720
  8
STANDARD
 10
-3.649802123326533
 20
-6.708438734263849
 30
0.0
  0
VERTEX
  5
721
  8
STANDARD
 10
-3.786963424861916
 20
-6.730621224884585
 30
0.0
  0
VERTEX
  5
722
  8
STANDARD
 10
-3.937239751245304
 20
-6.743930719257028
 30
0.0
  0
VERTEX
  5
723
  8
STANDARD
 10
-4.100631102476697
 20
-6.748367217381174
 30
0.0
  0
VERTEX
  5
724
  8
STANDARD
 10
-4.922505992951663
 20
-6.748367217381174
 30
0.0
  0
VERTEX
  5
725
  8
STANDARD
 10
-4.922505992951663
 20
-8.0551300316474
 30
0.0
  0
SEQEND
  5
726
  8
STANDARD
  0
POLYLINE
  5
67
  8
STANDARD
 66
     1
 10
0.0
 20
0.0
 30
0.0
 70
     1
  0
VERTEX
  5
727
  8
STANDARD
 10
-4.922505992951663
 20
-6.36905519243477
 30
0.0
  0
VERTEX
  5
728
  8
STANDARD
 10
-4.094073590052695
 20
-6.36905519243477
 30
0.0
  0
VERTEX
  5
729
  8
STANDARD
 10
-3.903495885230126
 20
-6.359462764058235
 30
0.0
  0
VERTEX
  5
72A
  8
STANDARD
 10
-3.742700215999901
 20
-6.330685478928631
 30
0.0
  0
VERTEX
  5
72B
  8
STANDARD
 10
-3.61168658236202
 20
-6.282723337045957
 30
0.0
  0
VERTEX
  5
72C
  8
STANDARD
 10
-3.557348028890208
 20
-6.251547944822219
 30
0.0
  0
VERTEX
  5
72D
  8
STANDARD
 10
-3.510454984316483
 20
-6.215576338410213
 30
0.0
  0
VERTEX
  5
72E
  8
STANDARD
 10
-3.434906976598289
 20
-6.131025934005613
 30
0.0
  0
VERTEX
  5
72F
  8
STANDARD
 10
-3.380944113942435
 20
-6.030853574816372
 30
0.0
  0
VERTEX
  5
730
  8
STANDARD
 10
-3.348566396348923
 20
-5.915059260842487
 30
0.0
  0
VERTEX
  5
731
  8
STANDARD
 10
-3.337773823817753
 20
-5.783642992083961
 30
0.0
  0
VERTEX
  5
732
  8
STANDARD
 10
-3.344126413978505
 20
-5.686416878753227
 30
0.0
  0
VERTEX
  5
733
  8
STANDARD
 10
-3.363184184460762
 20
-5.59645360405044
 30
0.0
  0
VERTEX
  5
734
  8
STANDARD
 10
-3.394947135264524
 20
-5.513753167975601
 30
0.0
  0
VERTEX
  5
735
  8
STANDARD
 10
-3.43941526638979
 20
-5.438315570528708
 30
0.0
  0
VERTEX
  5
736
  8
STANDARD
 10
-3.494266125519727
 20
-5.372607436149445
 30
0.0
  0
VERTEX
  5
737
  8
STANDARD
 10
-3.557177260337499
 20
-5.319095389277489
 30
0.0
  0
VERTEX
  5
738
  8
STANDARD
 10
-3.628148670843109
 20
-5.277779429912844
 30
0.0
  0
VERTEX
  5
739
  8
STANDARD
 10
-3.707180357036554
 20
-5.248659558055506
 30
0.0
  0
VERTEX
  5
73A
  8
STANDARD
 10
-3.85964252089461
 20
-5.227282146244944
 30
0.0
  0
VERTEX
  5
73B
  8
STANDARD
 10
-4.102816939951365
 20
-5.220156342308089
 30
0.0
  0
VERTEX
  5
73C
  8
STANDARD
 10
-4.922505992951663
 20
-5.220156342308089
 30
0.0
  0
SEQEND
  5
73D
  8
STANDARD
  0
POLYLINE
  5
68
  8
STANDARD
 66
     1
 10
0.0
 20
0.0
 30
0.0
 70
     1
  0
VERTEX
  5
73E
  8
STANDARD
 10
-0.2579288220112986
 20
-4.840844317361684
 30
0.0
  0
VERTEX
  5
73F
  8
STANDARD
 10
0.166123648074189
 20
-4.840844317361684
 30
0.0
  0
VERTEX
  5
740
  8
STANDARD
 10
0.166123648074189
 20
-6.697938451058819
 30
0.0
  0
VERTEX
  5
741
  8
STANDARD
 10
0.1592929059658532
 20
-6.927745628022375
 30
0.0
  0
VERTEX
  5
742
  8
STANDARD
 10
0.1388006796408457
 20
-7.13261249120694
 30
0.0
  0
VERTEX
  5
743
  8
STANDARD
 10
0.1046469690991666
 20
-7.312539040612513
 30
0.0
  0
VERTEX
  5
744
  8
STANDARD
 10
0.056831774340816
 20
-7.467525276239097
 30
0.0
  0
VERTEX
  5
745
  8
STANDARD
 10
-0.0088116573202911
 20
-7.603395172458157
 30
0.0
  0
VERTEX
  5
746
  8
STANDARD
 10
-0.0964500785702397
 20
-7.725972703641163
 30
0.0
  0
VERTEX
  5
747
  8
STANDARD
 10
-0.2060834894090297
 20
-7.835257869788112
 30
0.0
  0
VERTEX
  5
748
  8
STANDARD
 10
-0.3377118898366609
 20
-7.931250670899007
 30
0.0
  0
VERTEX
  5
749
  8
STANDARD
 10
-0.4118083648568338
 20
-7.973131898364413
 30
0.0
  0
VERTEX
  5
74A
  8
STANDARD
 10
-0.4914718946953003
 20
-8.009428962167766
 30
0.0
  0
VERTEX
  5
74B
  8
STANDARD
 10
-0.6675001188271144
 20
-8.065270598788306
 30
0.0
  0
VERTEX
  5
74C
  8
STANDARD
 10
-0.8657965622321031
 20
-8.098775580760632
 30
0.0
  0
VERTEX
  5
74D
  8
STANDARD
 10
-1.086361224910267
 20
-8.109943908084741
 30
0.0
  0
VERTEX
  5
74E
  8
STANDARD
 10
-1.301256371638512
 20
-8.100214445017114
 30
0.0
  0
VERTEX
  5
74F
  8
STANDARD
 10
-1.495659292041749
 20
-8.07102605581423
 30
0.0
  0
VERTEX
  5
750
  8
STANDARD
 10
-1.66956998611998
 20
-8.02237874047609
 30
0.0
  0
VERTEX
  5
751
  8
STANDARD
 10
-1.822988453873202
 20
-7.954272499002691
 30
0.0
  0
VERTEX
  5
752
  8
STANDARD
 10
-1.955914695301417
 20
-7.867735091577238
 30
0.0
  0
VERTEX
  5
753
  8
STANDARD
 10
-2.068348710404624
 20
-7.763794278382928
 30
0.0
  0
VERTEX
  5
754
  8
STANDARD
 10
-2.160290499182825
 20
-7.642450059419764
 30
0.0
  0
VERTEX
  5
755
  8
STANDARD
 10
-2.231740061636017
 20
-7.503702434687742
 30
0.0
  0
VERTEX
  5
756
  8
STANDARD
 10
-2.28529307976537
 20
-7.342755189998598
 30
0.0
  0
VERTEX
  5
757
  8
STANDARD
 10
-2.323545235572051
 20
-7.154812111164063
 30
0.0
  0
VERTEX
  5
758
  8
STANDARD
 10
-2.346496529056059
 20
-6.939873198184136
 30
0.0
  0
VERTEX
  5
759
  8
STANDARD
 10
-2.354146960217395
 20
-6.697938451058819
 30
0.0
  0
VERTEX
  5
75A
  8
STANDARD
 10
-2.354146960217395
 20
-4.840844317361684
 30
0.0
  0
VERTEX
  5
75B
  8
STANDARD
 10
-1.930094490131907
 20
-4.840844317361684
 30
0.0
  0
VERTEX
  5
75C
  8
STANDARD
 10
-1.930094490131907
 20
-6.695745896001327
 30
0.0
  0
VERTEX
  5
75D
  8
STANDARD
 10
-1.925244663234989
 20
-6.89136291753709
 30
0.0
  0
VERTEX
  5
75E
  8
STANDARD
 10
-1.910695182544234
 20
-7.059435966163089
 30
0.0
  0
VERTEX
  5
75F
  8
STANDARD
 10
-1.886446048059641
 20
-7.199965041879323
 30
0.0
  0
VERTEX
  5
760
  8
STANDARD
 10
-1.852497259781212
 20
-7.312950144685793
 30
0.0
  0
VERTEX
  5
761
  8
STANDARD
 10
-1.806731287655362
 20
-7.406476321357007
 30
0.0
  0
VERTEX
  5
762
  8
STANDARD
 10
-1.747030601628507
 20
-7.488628618667473
 30
0.0
  0
VERTEX
  5
763
  8
STANDARD
 10
-1.673395201700647
 20
-7.55940703661719
 30
0.0
  0
VERTEX
  5
764
  8
STANDARD
 10
-1.585825087871782
 20
-7.61881157520616
 30
0.0
  0
VERTEX
  5
765
  8
STANDARD
 10
-1.486027945668996
 20
-7.665814474251181
 30
0.0
  0
VERTEX
  5
766
  8
STANDARD
 10
-1.375711460619372
 20
-7.699387973569053
 30
0.0
  0
VERTEX
  5
767
  8
STANDARD
 10
-1.254875632722912
 20
-7.719532073159775
 30
0.0
  0
VERTEX
  5
768
  8
STANDARD
 10
-1.123520461979614
 20
-7.72624677302335
 30
0.0
  0
VERTEX
  5
769
  8
STANDARD
 10
-0.9064394777767014
 20
-7.712954407987294
 30
0.0
  0
VERTEX
  5
76A
  8
STANDARD
 10
-0.8105017048651249
 20
-7.696338951692224
 30
0.0
  0
VERTEX
  5
76B
  8
STANDARD
 10
-0.7229657447468012
 20
-7.673077312879128
 30
0.0
  0
VERTEX
  5
76C
  8
STANDARD
 10
-0.6438315974217308
 20
-7.643169491548003
 30
0.0
  0
VERTEX
  5
76D
  8
STANDARD
 10
-0.5730992628899133
 20
-7.606615487698852
 30
0.0
  0
VERTEX
  5
76E
  8
STANDARD
 10
-0.5107687411513491
 20
-7.563415301331672
 30
0.0
  0
VERTEX
  5
76F
  8
STANDARD
 10
-0.4568400322060377
 20
-7.513568932446464
 30
0.0
  0
VERTEX
  5
770
  8
STANDARD
 10
-0.4102202173166457
 20
-7.454267169875815
 30
0.0
  0
VERTEX
  5
771
  8
STANDARD
 10
-0.3698163777458393
 20
-7.382700802452311
 30
0.0
  0
VERTEX
  5
772
  8
STANDARD
 10
-0.3356285134936185
 20
-7.298869830175952
 30
0.0
  0
VERTEX
  5
773
  8
STANDARD
 10
-0.3076566245599833
 20
-7.202774253046737
 30
0.0
  0
VERTEX
  5
774
  8
STANDARD
 10
-0.2859007109449337
 20
-7.094414071064667
 30
0.0
  0
VERTEX
  5
775
  8
STANDARD
 10
-0.2703607726484698
 20
-6.973789284229742
 30
0.0
  0
VERTEX
  5
776
  8
STANDARD
 10
-0.2579288220112986
 20
-6.695745896001327
 30
0.0
  0
SEQEND
  5
777
  8
STANDARD
  0
POLYLINE
  5
69
  8
STANDARD
 66
     1
 10
0.0
 20
0.0
 30
0.0
 70
     1
  0
VERTEX
  5
778
  8
STANDARD
 10
0.854662452594438
 20
-8.0551300316474
 30
0.0
  0
VERTEX
  5
779
  8
STANDARD
 10
0.854662452594438
 20
-4.840844317361684
 30
0.0
  0
VERTEX
  5
77A
  8
STANDARD
 10
1.278714922679925
 20
-4.840844317361684
 30
0.0
  0
VERTEX
  5
77B
  8
STANDARD
 10
1.278714922679925
 20
-7.675818006700995
 30
0.0
  0
VERTEX
  5
77C
  8
STANDARD
 10
2.856889579389833
 20
-7.675818006700995
 30
0.0
  0
VERTEX
  5
77D
  8
STANDARD
 10
2.856889579389833
 20
-8.0551300316474
 30
0.0
  0
SEQEND
  5
77E
  8
STANDARD
  0
POLYLINE
  5
6A
  8
STANDARD
 66
     1
 10
0.0
 20
0.0
 30
0.0
 70
     1
  0
VERTEX
  5
77F
  8
STANDARD
 10
3.344331336240677
 20
-8.0551300316474
 30
0.0
  0
VERTEX
  5
780
  8
STANDARD
 10
3.344331336240677
 20
-4.840844317361684
 30
0.0
  0
VERTEX
  5
781
  8
STANDARD
 10
3.768383806326165
 20
-4.840844317361684
 30
0.0
  0
VERTEX
  5
782
  8
STANDARD
 10
3.768383806326165
 20
-7.675818006700995
 30
0.0
  0
VERTEX
  5
783
  8
STANDARD
 10
5.346558463036073
 20
-7.675818006700995
 30
0.0
  0
VERTEX
  5
784
  8
STANDARD
 10
5.346558463036073
 20
-8.0551300316474
 30
0.0
  0
SEQEND
  5
785
  8
STANDARD
  0
POLYLINE
  5
6B
  8
STANDARD
 66
     1
 10
0.0
 20
0.0
 30
0.0
 70
     1
  0
VERTEX
  5
786
  8
STANDARD
 10
-10.19693181932372
 20
-1.579735918924188
 30
0.0
  0
VERTEX
  5
787
  8
STANDARD
 10
-10.19693181932372
 20
1.634549795361527
 30
0.0
  0
VERTEX
  5
788
  8
STANDARD
 10
-9.761950161864892
 20
1.634549795361527
 30
0.0
  0
VERTEX
  5
789
  8
STANDARD
 10
-8.078855306370945
 20
-0.8890810758136829
 30
0.0
  0
VERTEX
  5
78A
  8
STANDARD
 10
-8.078855306370945
 20
1.634549795361527
 30
0.0
  0
VERTEX
  5
78B
  8
STANDARD
 10
-7.672289536082797
 20
1.634549795361527
 30
0.0
  0
VERTEX
  5
78C
  8
STANDARD
 10
-7.672289536082797
 20
-1.579735918924188
 30
0.0
  0
VERTEX
  5
78D
  8
STANDARD
 10
-8.107271193541623
 20
-1.579735918924188
 30
0.0
  0
VERTEX
  5
78E
  8
STANDARD
 10
-9.790366049035567
 20
0.946087507308516
 30
0.0
  0
VERTEX
  5
78F
  8
STANDARD
 10
-9.790366049035567
 20
-1.579735918924188
 30
0.0
  0
SEQEND
  5
790
  8
STANDARD
  0
POLYLINE
  5
6C
  8
STANDARD
 66
     1
 10
0.0
 20
0.0
 30
0.0
 70
     1
  0
VERTEX
  5
791
  8
STANDARD
 10
-6.950963169442534
 20
-1.579735918924188
 30
0.0
  0
VERTEX
  5
792
  8
STANDARD
 10
-6.950963169442534
 20
1.634549795361527
 30
0.0
  0
VERTEX
  5
793
  8
STANDARD
 10
-4.633975446295024
 20
1.634549795361527
 30
0.0
  0
VERTEX
  5
794
  8
STANDARD
 10
-4.633975446295024
 20
1.255237770415123
 30
0.0
  0
VERTEX
  5
795
  8
STANDARD
 10
-6.526910699357046
 20
1.255237770415123
 30
0.0
  0
VERTEX
  5
796
  8
STANDARD
 10
-6.526910699357046
 20
0.2707805496004669
 30
0.0
  0
VERTEX
  5
797
  8
STANDARD
 10
-4.754196507401734
 20
0.2707805496004669
 30
0.0
  0
VERTEX
  5
798
  8
STANDARD
 10
-4.754196507401734
 20
-0.1063389202884439
 30
0.0
  0
VERTEX
  5
799
  8
STANDARD
 10
-6.526910699357046
 20
-0.1063389202884439
 30
0.0
  0
VERTEX
  5
79A
  8
STANDARD
 10
-6.526910699357046
 20
-1.200423893977783
 30
0.0
  0
VERTEX
  5
79B
  8
STANDARD
 10
-4.559656972156329
 20
-1.200423893977783
 30
0.0
  0
VERTEX
  5
79C
  8
STANDARD
 10
-4.559656972156329
 20
-1.579735918924188
 30
0.0
  0
SEQEND
  5
79D
  8
STANDARD
  0
POLYLINE
  5
6D
  8
STANDARD
 66
     1
 10
0.0
 20
0.0
 30
0.0
 70
     1
  0
VERTEX
  5
79E
  8
STANDARD
 10
-1.871076878315352
 20
1.634549795361527
 30
0.0
  0
VERTEX
  5
79F
  8
STANDARD
 10
-1.447024408229864
 20
1.634549795361527
 30
0.0
  0
VERTEX
  5
7A0
  8
STANDARD
 10
-1.447024408229864
 20
-0.222544338335608
 30
0.0
  0
VERTEX
  5
7A1
  8
STANDARD
 10
-1.4538551503382
 20
-0.4523515152991631
 30
0.0
  0
VERTEX
  5
7A2
  8
STANDARD
 10
-1.474347376663208
 20
-0.6572183784837275
 30
0.0
  0
VERTEX
  5
7A3
  8
STANDARD
 10
-1.508501087204887
 20
-0.8371449278893016
 30
0.0
  0
VERTEX
  5
7A4
  8
STANDARD
 10
-1.556316281963237
 20
-0.9921311635158852
 30
0.0
  0
VERTEX
  5
7A5
  8
STANDARD
 10
-1.621959713624344
 20
-1.128001059734946
 30
0.0
  0
VERTEX
  5
7A6
  8
STANDARD
 10
-1.709598134874293
 20
-1.250578590917951
 30
0.0
  0
VERTEX
  5
7A7
  8
STANDARD
 10
-1.819231545713083
 20
-1.359863757064901
 30
0.0
  0
VERTEX
  5
7A8
  8
STANDARD
 10
-1.950859946140714
 20
-1.455856558175796
 30
0.0
  0
VERTEX
  5
7A9
  8
STANDARD
 10
-2.024956421160887
 20
-1.497737785641202
 30
0.0
  0
VERTEX
  5
7AA
  8
STANDARD
 10
-2.104619950999354
 20
-1.534034849444554
 30
0.0
  0
VERTEX
  5
7AB
  8
STANDARD
 10
-2.280648175131168
 20
-1.589876486065096
 30
0.0
  0
VERTEX
  5
7AC
  8
STANDARD
 10
-2.478944618536157
 20
-1.623381468037421
 30
0.0
  0
VERTEX
  5
7AD
  8
STANDARD
 10
-2.69950928121432
 20
-1.634549795361529
 30
0.0
  0
VERTEX
  5
7AE
  8
STANDARD
 10
-2.914404427942565
 20
-1.624820332293901
 30
0.0
  0
VERTEX
  5
7AF
  8
STANDARD
 10
-3.108807348345802
 20
-1.595631943091017
 30
0.0
  0
VERTEX
  5
7B0
  8
STANDARD
 10
-3.282718042424032
 20
-1.546984627752876
 30
0.0
  0
VERTEX
  5
7B1
  8
STANDARD
 10
-3.436136510177255
 20
-1.478878386279479
 30
0.0
  0
VERTEX
  5
7B2
  8
STANDARD
 10
-3.56906275160547
 20
-1.392340978854026
 30
0.0
  0
VERTEX
  5
7B3
  8
STANDARD
 10
-3.681496766708678
 20
-1.288400165659717
 30
0.0
  0
VERTEX
  5
7B4
  8
STANDARD
 10
-3.773438555486877
 20
-1.167055946696552
 30
0.0
  0
VERTEX
  5
7B5
  8
STANDARD
 10
-3.84488811794007
 20
-1.028308321964531
 30
0.0
  0
VERTEX
  5
7B6
  8
STANDARD
 10
-3.898441136069423
 20
-0.8673610772753861
 30
0.0
  0
VERTEX
  5
7B7
  8
STANDARD
 10
-3.936693291876104
 20
-0.6794179984408509
 30
0.0
  0
VERTEX
  5
7B8
  8
STANDARD
 10
-3.959644585360112
 20
-0.464479085460925
 30
0.0
  0
VERTEX
  5
7B9
  8
STANDARD
 10
-3.967295016521448
 20
-0.222544338335608
 30
0.0
  0
VERTEX
  5
7BA
  8
STANDARD
 10
-3.967295016521448
 20
1.634549795361527
 30
0.0
  0
VERTEX
  5
7BB
  8
STANDARD
 10
-3.543242546435961
 20
1.634549795361527
 30
0.0
  0
VERTEX
  5
7BC
  8
STANDARD
 10
-3.543242546435961
 20
-0.2203517832781148
 30
0.0
  0
VERTEX
  5
7BD
  8
STANDARD
 10
-3.538392719539042
 20
-0.4159688048138777
 30
0.0
  0
VERTEX
  5
7BE
  8
STANDARD
 10
-3.523843238848287
 20
-0.5840418534398766
 30
0.0
  0
VERTEX
  5
7BF
  8
STANDARD
 10
-3.499594104363695
 20
-0.7245709291561112
 30
0.0
  0
VERTEX
  5
7C0
  8
STANDARD
 10
-3.465645316085266
 20
-0.8375560319625817
 30
0.0
  0
VERTEX
  5
7C1
  8
STANDARD
 10
-3.419879343959416
 20
-0.931082208633796
 30
0.0
  0
VERTEX
  5
7C2
  8
STANDARD
 10
-3.36017865793256
 20
-1.013234505944262
 30
0.0
  0
VERTEX
  5
7C3
  8
STANDARD
 10
-3.2865432580047
 20
-1.084012923893979
 30
0.0
  0
VERTEX
  5
7C4
  8
STANDARD
 10
-3.198973144175835
 20
-1.143417462482948
 30
0.0
  0
VERTEX
  5
7C5
  8
STANDARD
 10
-3.099176001973049
 20
-1.190420361527968
 30
0.0
  0
VERTEX
  5
7C6
  8
STANDARD
 10
-2.988859516923426
 20
-1.22399386084584
 30
0.0
  0
VERTEX
  5
7C7
  8
STANDARD
 10
-2.868023689026965
 20
-1.244137960436563
 30
0.0
  0
VERTEX
  5
7C8
  8
STANDARD
 10
-2.736668518283667
 20
-1.250852660300138
 30
0.0
  0
VERTEX
  5
7C9
  8
STANDARD
 10
-2.519587534080754
 20
-1.237560295264082
 30
0.0
  0
VERTEX
  5
7CA
  8
STANDARD
 10
-2.423649761169178
 20
-1.220944838969013
 30
0.0
  0
VERTEX
  5
7CB
  8
STANDARD
 10
-2.336113801050854
 20
-1.197683200155916
 30
0.0
  0
VERTEX
  5
7CC
  8
STANDARD
 10
-2.256979653725784
 20
-1.167775378824792
 30
0.0
  0
VERTEX
  5
7CD
  8
STANDARD
 10
-2.186247319193967
 20
-1.13122137497564
 30
0.0
  0
VERTEX
  5
7CE
  8
STANDARD
 10
-2.123916797455403
 20
-1.08802118860846
 30
0.0
  0
VERTEX
  5
7CF
  8
STANDARD
 10
-2.069988088510091
 20
-1.038174819723252
 30
0.0
  0
VERTEX
  5
7D0
  8
STANDARD
 10
-2.023368273620699
 20
-0.9788730571526032
 30
0.0
  0
VERTEX
  5
7D1
  8
STANDARD
 10
-1.982964434049892
 20
-0.907306689729099
 30
0.0
  0
VERTEX
  5
7D2
  8
STANDARD
 10
-1.948776569797672
 20
-0.8234757174527395
 30
0.0
  0
VERTEX
  5
7D3
  8
STANDARD
 10
-1.920804680864037
 20
-0.7273801403235249
 30
0.0
  0
VERTEX
  5
7D4
  8
STANDARD
 10
-1.899048767248987
 20
-0.6190199583414552
 30
0.0
  0
VERTEX
  5
7D5
  8
STANDARD
 10
-1.883508828952523
 20
-0.4983951715065303
 30
0.0
  0
VERTEX
  5
7D6
  8
STANDARD
 10
-1.871076878315352
 20
-0.2203517832781148
 30
0.0
  0
SEQEND
  5
7D7
  8
STANDARD
  0
POLYLINE
  5
6E
  8
STANDARD
 66
     1
 10
0.0
 20
0.0
 30
0.0
 70
     1
  0
VERTEX
  5
7D8
  8
STANDARD
 10
0.0743184741386894
 20
-1.579735918924188
 30
0.0
  0
VERTEX
  5
7D9
  8
STANDARD
 10
0.0743184741386894
 20
1.255237770415123
 30
0.0
  0
VERTEX
  5
7DA
  8
STANDARD
 10
-0.9814410261256952
 20
1.255237770415123
 30
0.0
  0
VERTEX
  5
7DB
  8
STANDARD
 10
-0.9814410261256952
 20
1.634549795361527
 30
0.0
  0
VERTEX
  5
7DC
  8
STANDARD
 10
1.558502119437896
 20
1.634549795361527
 30
0.0
  0
VERTEX
  5
7DD
  8
STANDARD
 10
1.558502119437896
 20
1.255237770415123
 30
0.0
  0
VERTEX
  5
7DE
  8
STANDARD
 10
0.498370944224177
 20
1.255237770415123
 30
0.0
  0
VERTEX
  5
7DF
  8
STANDARD
 10
0.498370944224177
 20
-1.579735918924188
 30
0.0
  0
SEQEND
  5
7E0
  8
STANDARD
  0
POLYLINE
  5
6F
  8
STANDARD
 66
     1
 10
0.0
 20
0.0
 30
0.0
 70
     1
  0
VERTEX
  5
7E1
  8
STANDARD
 10
2.000041289320723
 20
-1.579735918924188
 30
0.0
  0
VERTEX
  5
7E2
  8
STANDARD
 10
2.000041289320723
 20
1.634549795361527
 30
0.0
  0
VERTEX
  5
7E3
  8
STANDARD
 10
3.420835647854574
 20
1.634549795361527
 30
0.0
  0
VERTEX
  5
7E4
  8
STANDARD
 10
3.622205925208314
 20
1.62913692506334
 30
0.0
  0
VERTEX
  5
7E5
  8
STANDARD
 10
3.797892612234711
 20
1.612898314168777
 30
0.0
  0
VERTEX
  5
7E6
  8
STANDARD
 10
3.947895708933766
 20
1.58583396267784
 30
0.0
  0
VERTEX
  5
7E7
  8
STANDARD
 10
4.072215215305478
 20
1.547943870590527
 30
0.0
  0
VERTEX
  5
7E8
  8
STANDARD
 10
4.178091717984683
 20
1.496350309393879
 30
0.0
  0
VERTEX
  5
7E9
  8
STANDARD
 10
4.272765803606218
 20
1.428175550574936
 30
0.0
  0
VERTEX
  5
7EA
  8
STANDARD
 10
4.356237472170082
 20
1.343419594133696
 30
0.0
  0
VERTEX
  5
7EB
  8
STANDARD
 10
4.428506723676274
 20
1.242082440070161
 30
0.0
  0
VERTEX
  5
7EC
  8
STANDARD
 10
4.486841261281461
 20
1.129576958682517
 30
0.0
  0
VERTEX
  5
7ED
  8
STANDARD
 10
4.528508788142311
 20
1.011316020268953
 30
0.0
  0
VERTEX
  5
7EE
  8
STANDARD
 10
4.55350930425882
 20
0.8872996248294672
 30
0.0
  0
VERTEX
  5
7EF
  8
STANDARD
 10
4.561842809630989
 20
0.7575277723640608
 30
0.0
  0
VERTEX
  5
7F0
  8
STANDARD
 10
4.548044710572151
 20
0.5932231777431289
 30
0.0
  0
VERTEX
  5
7F1
  8
STANDARD
 10
4.530797086748603
 20
0.5161069053303439
 30
0.0
  0
VERTEX
  5
7F2
  8
STANDARD
 10
4.506650413395636
 20
0.4423479828493461
 30
0.0
  0
VERTEX
  5
7F3
  8
STANDARD
 10
4.475604690513249
 20
0.3719464103001354
 30
0.0
  0
VERTEX
  5
7F4
  8
STANDARD
 10
4.437659918101444
 20
0.3049021876827118
 30
0.0
  0
VERTEX
  5
7F5
  8
STANDARD
 10
4.392816096160219
 20
0.2412153149970754
 30
0.0
  0
VERTEX
  5
7F6
  8
STANDARD
 10
4.341073224689576
 20
0.1808857922432261
 30
0.0
  0
VERTEX
  5
7F7
  8
STANDARD
 10
4.282123920294637
 20
0.124907120931591
 30
0.0
  0
VERTEX
  5
7F8
  8
STANDARD
 10
4.21566079958053
 20
0.0742728025725967
 30
0.0
  0
VERTEX
  5
7F9
  8
STANDARD
 10
4.141683862547253
 20
0.0289828371662432
 30
0.0
  0
VERTEX
  5
7FA
  8
STANDARD
 10
4.060193109194807
 20
-0.0109627752874695
 30
0.0
  0
VERTEX
  5
7FB
  8
STANDARD
 10
3.874670153532406
 20
-0.0748209413369724
 30
0.0
  0
VERTEX
  5
7FC
  8
STANDARD
 10
3.659091932593328
 20
-0.1173016955759121
 30
0.0
  0
VERTEX
  5
7FD
  8
STANDARD
 10
3.807182421502048
 20
-0.1978780939388045
 30
0.0
  0
VERTEX
  5
7FE
  8
STANDARD
 10
3.914834917129421
 20
-0.2773582147729499
 30
0.0
  0
VERTEX
  5
7FF
  8
STANDARD
 10
4.006503476223287
 20
-0.3682122149678436
 30
0.0
  0
VERTEX
  5
800
  8
STANDARD
 10
4.095712968158153
 20
-0.4697549210680191
 30
0.0
  0
VERTEX
  5
801
  8
STANDARD
 10
4.182463392934018
 20
-0.581986333073476
 30
0.0
  0
VERTEX
  5
802
  8
STANDARD
 10
4.266754750550882
 20
-0.7049064509842149
 30
0.0
  0
VERTEX
  5
803
  8
STANDARD
 10
4.824143306591084
 20
-1.579735918924188
 30
0.0
  0
VERTEX
  5
804
  8
STANDARD
 10
4.290798962772224
 20
-1.579735918924188
 30
0.0
  0
VERTEX
  5
805
  8
STANDARD
 10
3.866746492686736
 20
-0.9110066263886195
 30
0.0
  0
VERTEX
  5
806
  8
STANDARD
 10
3.697344088400008
 20
-0.6555739621906074
 30
0.0
  0
VERTEX
  5
807
  8
STANDARD
 10
3.560729246233292
 20
-0.4681105047748988
 30
0.0
  0
VERTEX
  5
808
  8
STANDARD
 10
3.44679246786625
 20
-0.3376534788540257
 30
0.0
  0
VERTEX
  5
809
  8
STANDARD
 10
3.345424254978547
 20
-0.2532401091405196
 30
0.0
  0
VERTEX
  5
80A
  8
STANDARD
 10
3.249520635777511
 20
-0.2011669265250452
 30
0.0
  0
VERTEX
  5
80B
  8
STANDARD
 10
3.151977638470476
 20
-0.1677304618982667
 30
0.0
  0
VERTEX
  5
80C
  8
STANDARD
 10
3.056893708322442
 20
-0.156219547846425
 30
0.0
  0
VERTEX
  5
80D
  8
STANDARD
 10
2.915907191206391
 20
-0.1523825764958111
 30
0.0
  0
VERTEX
  5
80E
  8
STANDARD
 10
2.424093759406211
 20
-0.1523825764958111
 30
0.0
  0
VERTEX
  5
80F
  8
STANDARD
 10
2.424093759406211
 20
-1.579735918924188
 30
0.0
  0
SEQEND
  5
810
  8
STANDARD
  0
POLYLINE
  5
70
  8
STANDARD
 66
     1
 10
0.0
 20
0.0
 30
0.0
 70
     1
  0
VERTEX
  5
811
  8
STANDARD
 10
2.424093759406211
 20
0.2159666731631251
 30
0.0
  0
VERTEX
  5
812
  8
STANDARD
 10
3.335587986342543
 20
0.2159666731631251
 30
0.0
  0
VERTEX
  5
813
  8
STANDARD
 10
3.47302251756226
 20
0.2197351271681923
 30
0.0
  0
VERTEX
  5
814
  8
STANDARD
 10
3.594609727090637
 20
0.231040489183394
 30
0.0
  0
VERTEX
  5
815
  8
STANDARD
 10
3.700349614927676
 20
0.2498827592087302
 30
0.0
  0
VERTEX
  5
816
  8
STANDARD
 10
3.790242181073375
 20
0.276261937244201
 30
0.0
  0
VERTEX
  5
817
  8
STANDARD
 10
3.867292952055403
 20
0.3109317140908197
 30
0.0
  0
VERTEX
  5
818
  8
STANDARD
 10
3.934507454401428
 20
0.3546457805495995
 30
0.0
  0
VERTEX
  5
819
  8
STANDARD
 10
3.991885688111449
 20
0.4074041366205407
 30
0.0
  0
VERTEX
  5
81A
  8
STANDARD
 10
4.039427653185466
 20
0.4692067823036434
 30
0.0
  0
VERTEX
  5
81B
  8
STANDARD
 10
4.07672350509698
 20
0.5369704370493071
 30
0.0
  0
VERTEX
  5
81C
  8
STANDARD
 10
4.103363399319489
 20
0.6076118203079313
 30
0.0
  0
VERTEX
  5
81D
  8
STANDARD
 10
4.119347335852996
 20
0.6811309320795158
 30
0.0
  0
VERTEX
  5
81E
  8
STANDARD
 10
4.124675314697497
 20
0.7575277723640608
 30
0.0
  0
VERTEX
  5
81F
  8
STANDARD
 10
4.11436089411391
 20
0.8664703517832771
 30
0.0
  0
VERTEX
  5
820
  8
STANDARD
 10
4.083417632363148
 20
0.9652723640615855
 30
0.0
  0
VERTEX
  5
821
  8
STANDARD
 10
4.031845529445214
 20
1.053933809198986
 30
0.0
  0
VERTEX
  5
822
  8
STANDARD
 10
3.959644585360103
 20
1.132454687195478
 30
0.0
  0
VERTEX
  5
823
  8
STANDARD
 10
3.865175422001819
 20
1.196723957318261
 30
0.0
  0
VERTEX
  5
824
  8
STANDARD
 10
3.746798661264359
 20
1.242630578834535
 30
0.0
  0
VERTEX
  5
825
  8
STANDARD
 10
3.604514303147724
 20
1.270174551744299
 30
0.0
  0
VERTEX
  5
826
  8
STANDARD
 10
3.438322347651914
 20
1.279355876047553
 30
0.0
  0
VERTEX
  5
827
  8
STANDARD
 10
2.424093759406211
 20
1.279355876047553
 30
0.0
  0
SEQEND
  5
828
  8
STANDARD
  0
POLYLINE
  5
71
  8
STANDARD
 66
     1
 10
0.0
 20
0.0
 30
0.0
 70
     1
  0
VERTEX
  5
829
  8
STANDARD
 10
4.874417568508438
 20
-1.579735918924188
 30
0.0
  0
VERTEX
  5
82A
  8
STANDARD
 10
6.105044066746219
 20
1.634549795361527
 30
0.0
  0
VERTEX
  5
82B
  8
STANDARD
 10
6.561884098951718
 20
1.634549795361527
 30
0.0
  0
VERTEX
  5
82C
  8
STANDARD
 10
7.873386583752196
 20
-1.579735918924188
 30
0.0
  0
VERTEX
  5
82D
  8
STANDARD
 10
7.390316501850687
 20
-1.579735918924188
 30
0.0
  0
VERTEX
  5
82E
  8
STANDARD
 10
7.016538293682551
 20
-0.6062414733969999
 30
0.0
  0
VERTEX
  5
82F
  8
STANDARD
 10
5.676619921711396
 20
-0.6062414733969999
 30
0.0
  0
VERTEX
  5
830
  8
STANDARD
 10
5.324700088289934
 20
-1.579735918924188
 30
0.0
  0
SEQEND
  5
831
  8
STANDARD
  0
POLYLINE
  5
72
  8
STANDARD
 66
     1
 10
0.0
 20
0.0
 30
0.0
 70
     1
  0
VERTEX
  5
832
  8
STANDARD
 10
5.799026820292774
 20
-0.2598177743130006
 30
0.0
  0
VERTEX
  5
833
  8
STANDARD
 10
6.885388045202503
 20
-0.2598177743130006
 30
0.0
  0
VERTEX
  5
834
  8
STANDARD
 10
6.550954911578381
 20
0.6303595790294283
 30
0.0
  0
VERTEX
  5
835
  8
STANDARD
 10
6.417618825623666
 20
0.9998051062171106
 30
0.0
  0
VERTEX
  5
836
  8
STANDARD
 10
6.323627814212965
 20
1.296896316507502
 30
0.0
  0
VERTEX
  5
837
  8
STANDARD
 10
6.249855799442938
 20
0.9888423309296424
 30
0.0
  0
VERTEX
  5
838
  8
STANDARD
 10
6.150946653714235
 20
0.6829809004092757
 30
0.0
  0
SEQEND
  5
839
  8
STANDARD
  0
POLYLINE
  5
73
  8
STANDARD
 66
     1
 10
0.0
 20
0.0
 30
0.0
 70
     1
  0
VERTEX
  5
83A
  8
STANDARD
 10
8.194704692528315
 20
-1.579735918924188
 30
0.0
  0
VERTEX
  5
83B
  8
STANDARD
 10
8.194704692528315
 20
1.634549795361527
 30
0.0
  0
VERTEX
  5
83C
  8
STANDARD
 10
8.618757162613802
 20
1.634549795361527
 30
0.0
  0
VERTEX
  5
83D
  8
STANDARD
 10
8.618757162613802
 20
-1.200423893977783
 30
0.0
  0
VERTEX
  5
83E
  8
STANDARD
 10
10.19693181932371
 20
-1.200423893977783
 30
0.0
  0
VERTEX
  5
83F
  8
STANDARD
 10
10.19693181932371
 20
-1.579735918924188
 30
0.0
  0
SEQEND
  5
840
  8
STANDARD
  0
POLYLINE
  5
74
  8
STANDARD
 66
     1
 10
0.0
 20
0.0
 30
0.0
 70
     1
  0
VERTEX
  5
841
  8
STANDARD
 10
-16.41532156471187
 20
-2.162313717131262
 30
0.0
  0
VERTEX
  5
842
  8
STANDARD
 10
-16.35162215103733
 20
-2.610188049511432
 30
0.0
  0
VERTEX
  5
843
  8
STANDARD
 10
-16.27881454894356
 20
-3.05100924272964
 30
0.0
  0
VERTEX
  5
844
  8
STANDARD
 10
-16.19704333285068
 20
-3.484777296786877
 30
0.0
  0
VERTEX
  5
845
  8
STANDARD
 10
-16.1064530771788
 20
-3.911492211684135
 30
0.0
  0
VERTEX
  5
846
  8
STANDARD
 10
-16.00718835634803
 20
-4.331153987422406
 30
0.0
  0
VERTEX
  5
847
  8
STANDARD
 10
-15.8993937447785
 20
-4.743762624002681
 30
0.0
  0
VERTEX
  5
848
  8
STANDARD
 10
-15.78321381689032
 20
-5.149318121425953
 30
0.0
  0
VERTEX
  5
849
  8
STANDARD
 10
-15.6587931471036
 20
-5.547820479693213
 30
0.0
  0
VERTEX
  5
84A
  8
STANDARD
 10
-15.52627630983846
 20
-5.939269698805452
 30
0.0
  0
VERTEX
  5
84B
  8
STANDARD
 10
-15.38580787951502
 20
-6.323665778763663
 30
0.0
  0
VERTEX
  5
84C
  8
STANDARD
 10
-15.23753243055339
 20
-6.701008719568838
 30
0.0
  0
VERTEX
  5
84D
  8
STANDARD
 10
-15.0815945373737
 20
-7.071298521221967
 30
0.0
  0
VERTEX
  5
84E
  8
STANDARD
 10
-14.91813877439604
 20
-7.434535183724044
 30
0.0
  0
VERTEX
  5
84F
  8
STANDARD
 10
-14.74730971604056
 20
-7.790718707076058
 30
0.0
  0
VERTEX
  5
850
  8
STANDARD
 10
-14.56925193672735
 20
-8.139849091279004
 30
0.0
  0
VERTEX
  5
851
  8
STANDARD
 10
-14.38411001087653
 20
-8.48192633633387
 30
0.0
  0
VERTEX
  5
852
  8
STANDARD
 10
-14.19202851290823
 20
-8.816950442241652
 30
0.0
  0
VERTEX
  5
853
  8
STANDARD
 10
-13.99315201724255
 20
-9.144921409003338
 30
0.0
  0
VERTEX
  5
854
  8
STANDARD
 10
-13.78762509829962
 20
-9.46583923661992
 30
0.0
  0
VERTEX
  5
855
  8
STANDARD
 10
-13.57559233049955
 20
-9.779703925092395
 30
0.0
  0
VERTEX
  5
856
  8
STANDARD
 10
-13.35719828826245
 20
-10.08651547442175
 30
0.0
  0
VERTEX
  5
857
  8
STANDARD
 10
-13.13258754600844
 20
-10.38627388460897
 30
0.0
  0
VERTEX
  5
858
  8
STANDARD
 10
-12.90190467815764
 20
-10.67897915565506
 30
0.0
  0
VERTEX
  5
859
  8
STANDARD
 10
-12.66529425913016
 20
-10.96463128756101
 30
0.0
  0
VERTEX
  5
85A
  8
STANDARD
 10
-12.42290086334613
 20
-11.2432302803278
 30
0.0
  0
VERTEX
  5
85B
  8
STANDARD
 10
-12.17486906522565
 20
-11.51477613395644
 30
0.0
  0
VERTEX
  5
85C
  8
STANDARD
 10
-11.92134343918884
 20
-11.7792688484479
 30
0.0
  0
VERTEX
  5
85D
  8
STANDARD
 10
-11.66246855965582
 20
-12.03670842380319
 30
0.0
  0
VERTEX
  5
85E
  8
STANDARD
 10
-11.39838900104671
 20
-12.28709486002329
 30
0.0
  0
VERTEX
  5
85F
  8
STANDARD
 10
-11.12924933778162
 20
-12.5304281571092
 30
0.0
  0
VERTEX
  5
860
  8
STANDARD
 10
-10.85519414428066
 20
-12.76670831506191
 30
0.0
  0
VERTEX
  5
861
  8
STANDARD
 10
-10.57636799496396
 20
-12.9959353338824
 30
0.0
  0
VERTEX
  5
862
  8
STANDARD
 10
-10.29291546425163
 20
-13.21810921357168
 30
0.0
  0
VERTEX
  5
863
  8
STANDARD
 10
-10.00498112656378
 20
-13.43322995413073
 30
0.0
  0
VERTEX
  5
864
  8
STANDARD
 10
-9.712709556320537
 20
-13.64129755556055
 30
0.0
  0
VERTEX
  5
865
  8
STANDARD
 10
-9.41624532794201
 20
-13.84231201786212
 30
0.0
  0
VERTEX
  5
866
  8
STANDARD
 10
-9.115733015848317
 20
-14.03627334103644
 30
0.0
  0
VERTEX
  5
867
  8
STANDARD
 10
-8.811317194459575
 20
-14.22318152508451
 30
0.0
  0
VERTEX
  5
868
  8
STANDARD
 10
-8.503142438195898
 20
-14.40303657000731
 30
0.0
  0
VERTEX
  5
869
  8
STANDARD
 10
-8.191353321477404
 20
-14.57583847580582
 30
0.0
  0
VERTEX
  5
86A
  8
STANDARD
 10
-7.87609441872421
 20
-14.74158724248106
 30
0.0
  0
VERTEX
  5
86B
  8
STANDARD
 10
-7.55751030435643
 20
-14.900282870034
 30
0.0
  0
VERTEX
  5
86C
  8
STANDARD
 10
-7.235745552794182
 20
-15.05192535846565
 30
0.0
  0
VERTEX
  5
86D
  8
STANDARD
 10
-6.91094473845758
 20
-15.19651470777698
 30
0.0
  0
VERTEX
  5
86E
  8
STANDARD
 10
-6.583252435766743
 20
-15.33405091796899
 30
0.0
  0
VERTEX
  5
86F
  8
STANDARD
 10
-6.252813219141785
 20
-15.46453398904268
 30
0.0
  0
VERTEX
  5
870
  8
STANDARD
 10
-5.584272341769972
 20
-15.70434071383905
 30
0.0
  0
VERTEX
  5
871
  8
STANDARD
 10
-4.906478701703072
 20
-15.91593488217402
 30
0.0
  0
VERTEX
  5
872
  8
STANDARD
 10
-4.220588894302015
 20
-16.09931649405552
 30
0.0
  0
VERTEX
  5
873
  8
STANDARD
 10
-3.527759514927729
 20
-16.25448554949149
 30
0.0
  0
VERTEX
  5
874
  8
STANDARD
 10
-2.829147158941143
 20
-16.38144204848986
 30
0.0
  0
VERTEX
  5
875
  8
STANDARD
 10
-2.125908421703187
 20
-16.48018599105856
 30
0.0
  0
VERTEX
  5
876
  8
STANDARD
 10
-1.419199898574791
 20
-16.55071737720553
 30
0.0
  0
VERTEX
  5
877
  8
STANDARD
 10
-0.7101781849168834
 20
-16.5930362069387
 30
0.0
  0
VERTEX
  5
878
  8
STANDARD
 10
0.0000001239096061
 20
-16.60714248026601
 30
0.0
  0
VERTEX
  5
879
  8
STANDARD
 10
0.7101784325437484
 20
-16.59303619719539
 30
0.0
  0
VERTEX
  5
87A
  8
STANDARD
 10
1.419200145624614
 20
-16.55071735773478
 30
0.0
  0
VERTEX
  5
87B
  8
STANDARD
 10
2.125908667791273
 20
-16.4801859618921
 30
0.0
  0
VERTEX
  5
87C
  8
STANDARD
 10
2.829147403682797
 20
-16.3814420096753
 30
0.0
  0
VERTEX
  5
87D
  8
STANDARD
 10
3.527759757938256
 20
-16.2544855010923
 30
0.0
  0
VERTEX
  5
87E
  8
STANDARD
 10
4.220589135196721
 20
-16.09931643615104
 30
0.0
  0
VERTEX
  5
87F
  8
STANDARD
 10
4.906478940097262
 20
-15.91593481485945
 30
0.0
  0
VERTEX
  5
880
  8
STANDARD
 10
5.584272577278951
 20
-15.70434063722548
 30
0.0
  0
VERTEX
  5
881
  8
STANDARD
 10
6.252813451380858
 20
-15.46453390325704
 30
0.0
  0
VERTEX
  5
882
  8
STANDARD
 10
6.583252666226603
 20
-15.33405082764988
 30
0.0
  0
VERTEX
  5
883
  8
STANDARD
 10
6.910944967042053
 20
-15.19651461296209
 30
0.0
  0
VERTEX
  5
884
  8
STANDARD
 10
7.235745779407093
 20
-15.05192525919464
 30
0.0
  0
VERTEX
  5
885
  8
STANDARD
 10
7.557510528901608
 20
-14.90028276634854
 30
0.0
  0
VERTEX
  5
886
  8
STANDARD
 10
7.87609464110548
 20
-14.74158713442477
 30
0.0
  0
VERTEX
  5
887
  8
STANDARD
 10
8.191353541598593
 20
-14.57583836342434
 30
0.0
  0
VERTEX
  5
888
  8
STANDARD
 10
8.503142655960831
 20
-14.40303645334822
 30
0.0
  0
VERTEX
  5
889
  8
STANDARD
 10
8.811317409772078
 20
-14.22318140419741
 30
0.0
  0
VERTEX
  5
88A
  8
STANDARD
 10
9.115733228612218
 20
-14.0362732159729
 30
0.0
  0
VERTEX
  5
88B
  8
STANDARD
 10
9.416245538061133
 20
-13.8423118886757
 30
0.0
  0
VERTEX
  5
88C
  8
STANDARD
 10
9.712709763698712
 20
-13.64129742230677
 30
0.0
  0
VERTEX
  5
88D
  8
STANDARD
 10
10.00498133110483
 20
-13.43322981686713
 30
0.0
  0
VERTEX
  5
88E
  8
STANDARD
 10
10.29291566585938
 20
-13.21810907235775
 30
0.0
  0
VERTEX
  5
88F
  8
STANDARD
 10
10.57636819354224
 20
-12.99593518877964
 30
0.0
  0
VERTEX
  5
890
  8
STANDARD
 10
10.8551943397333
 20
-12.76670816613378
 30
0.0
  0
VERTEX
  5
891
  8
STANDARD
 10
11.12924953001243
 20
-12.53042800442116
 30
0.0
  0
VERTEX
  5
892
  8
STANDARD
 10
11.39838918995953
 20
-12.28709470364278
 30
0.0
  0
VERTEX
  5
893
  8
STANDARD
 10
11.66246874515448
 20
-12.03670826379964
 30
0.0
  0
VERTEX
  5
894
  8
STANDARD
 10
11.92134362117716
 20
-11.77926868489271
 30
0.0
  0
VERTEX
  5
895
  8
STANDARD
 10
12.17486924360745
 20
-11.51477596692299
 30
0.0
  0
VERTEX
  5
896
  8
STANDARD
 10
12.42290103802524
 20
-11.24323010989148
 30
0.0
  0
VERTEX
  5
897
  8
STANDARD
 10
12.66529443001042
 20
-10.96463111379916
 30
0.0
  0
VERTEX
  5
898
  8
STANDARD
 10
12.90190484514286
 20
-10.67897897864703
 30
0.0
  0
VERTEX
  5
899
  8
STANDARD
 10
13.13258770900245
 20
-10.38627370443609
 30
0.0
  0
VERTEX
  5
89A
  8
STANDARD
 10
13.35719844716908
 20
-10.08651529116731
 30
0.0
  0
VERTEX
  5
89B
  8
STANDARD
 10
13.57559248522262
 20
-9.77970373884169
 30
0.0
  0
VERTEX
  5
89C
  8
STANDARD
 10
13.78762524874297
 20
-9.465839047460227
 30
0.0
  0
VERTEX
  5
89D
  8
STANDARD
 10
13.99315216331
 20
-9.144921217023912
 30
0.0
  0
VERTEX
  5
89E
  8
STANDARD
 10
14.1920286545036
 20
-8.816950247533734
 30
0.0
  0
VERTEX
  5
89F
  8
STANDARD
 10
14.38411014790365
 20
-8.481926138990687
 30
0.0
  0
VERTEX
  5
8A0
  8
STANDARD
 10
14.56925206909004
 20
-8.139848891395761
 30
0.0
  0
VERTEX
  5
8A1
  8
STANDARD
 10
14.74730984364265
 20
-7.790718504749947
 30
0.0
  0
VERTEX
  5
8A2
  8
STANDARD
 10
14.91813889714137
 20
-7.434534979054239
 30
0.0
  0
VERTEX
  5
8A3
  8
STANDARD
 10
15.08159465516608
 20
-7.071298314309627
 30
0.0
  0
VERTEX
  5
8A4
  8
STANDARD
 10
15.23753254329665
 20
-6.701008510517103
 30
0.0
  0
VERTEX
  5
8A5
  8
STANDARD
 10
15.38580798711299
 20
-6.323665567677661
 30
0.0
  0
VERTEX
  5
8A6
  8
STANDARD
 10
15.52627641219496
 20
-5.939269485792289
 30
0.0
  0
VERTEX
  5
8A7
  8
STANDARD
 10
15.65879324412246
 20
-5.547820264861981
 30
0.0
  0
VERTEX
  5
8A8
  8
STANDARD
 10
15.78321390847536
 20
-5.149317904887729
 30
0.0
  0
VERTEX
  5
8A9
  8
STANDARD
 10
15.89939383083356
 20
-4.743762405870523
 30
0.0
  0
VERTEX
  5
8AA
  8
STANDARD
 10
16.00718843677693
 20
-4.331153767811357
 30
0.0
  0
VERTEX
  5
8AB
  8
STANDARD
 10
16.10645315188536
 20
-3.911491990711222
 30
0.0
  0
VERTEX
  5
8AC
  8
STANDARD
 10
16.19704340173874
 20
-3.484777074571109
 30
0.0
  0
VERTEX
  5
8AD
  8
STANDARD
 10
16.27881461191694
 20
-3.05100901939201
 30
0.0
  0
VERTEX
  5
8AE
  8
STANDARD
 10
16.35162220799985
 20
-2.610187825174917
 30
0.0
  0
VERTEX
  5
8AF
  8
STANDARD
 10
16.41532161556736
 20
-2.162313491920821
 30
0.0
  0
VERTEX
  5
8B0
  8
STANDARD
 10
16.2274970108381
 20
-2.361652967625857
 30
0.0
  0
VERTEX
  5
8B1
  8
STANDARD
 10
16.03056024663478
 20
-2.540095656646565
 30
0.0
  0
VERTEX
  5
8B2
  8
STANDARD
 10
15.82550185253002
 20
-2.698016505561429
 30
0.0
  0
VERTEX
  5
8B3
  8
STANDARD
 10
15.61331235809644
 20
-2.835790460948934
 30
0.0
  0
VERTEX
  5
8B4
  8
STANDARD
 10
15.39498229290664
 20
-2.953792469387565
 30
0.0
  0
VERTEX
  5
8B5
  8
STANDARD
 10
15.17150218653325
 20
-3.052397477455806
 30
0.0
  0
VERTEX
  5
8B6
  8
STANDARD
 10
14.94386256854889
 20
-3.131980431732143
 30
0.0
  0
VERTEX
  5
8B7
  8
STANDARD
 10
14.71305396852616
 20
-3.192916278795059
 30
0.0
  0
VERTEX
  5
8B8
  8
STANDARD
 10
14.48006691603769
 20
-3.235579965223041
 30
0.0
  0
VERTEX
  5
8B9
  8
STANDARD
 10
14.24589194065609
 20
-3.260346437594572
 30
0.0
  0
VERTEX
  5
8BA
  8
STANDARD
 10
14.01151957195397
 20
-3.267590642488138
 30
0.0
  0
VERTEX
  5
8BB
  8
STANDARD
 10
13.77794033950396
 20
-3.257687526482223
 30
0.0
  0
VERTEX
  5
8BC
  8
STANDARD
 10
13.54614477287867
 20
-3.231012036155311
 30
0.0
  0
VERTEX
  5
8BD
  8
STANDARD
 10
13.31712340165071
 20
-3.187939118085889
 30
0.0
  0
VERTEX
  5
8BE
  8
STANDARD
 10
13.0918667553927
 20
-3.128843718852441
 30
0.0
  0
VERTEX
  5
8BF
  8
STANDARD
 10
12.87136536367727
 20
-3.05410078503345
 30
0.0
  0
VERTEX
  5
8C0
  8
STANDARD
 10
12.65660975607701
 20
-2.964085263207402
 30
0.0
  0
VERTEX
  5
8C1
  8
STANDARD
 10
12.44859046216456
 20
-2.859172099952783
 30
0.0
  0
VERTEX
  5
8C2
  8
STANDARD
 10
12.24829801151252
 20
-2.739736241848076
 30
0.0
  0
VERTEX
  5
8C3
  8
STANDARD
 10
12.05672293369351
 20
-2.606152635471767
 30
0.0
  0
VERTEX
  5
8C4
  8
STANDARD
 10
11.87485575828015
 20
-2.45879622740234
 30
0.0
  0
VERTEX
  5
8C5
  8
STANDARD
 10
11.70368701484506
 20
-2.298041964218281
 30
0.0
  0
VERTEX
  5
8C6
  8
STANDARD
 10
11.54420723296084
 20
-2.124264792498073
 30
0.0
  0
VERTEX
  5
8C7
  8
STANDARD
 10
11.39740694220012
 20
-1.937839658820201
 30
0.0
  0
VERTEX
  5
8C8
  8
STANDARD
 10
11.26427667213552
 20
-1.739141509763151
 30
0.0
  0
VERTEX
  5
8C9
  8
STANDARD
 10
11.14580695233964
 20
-1.528545291905407
 30
0.0
  0
VERTEX
  5
8CA
  8
STANDARD
 10
11.04298831238511
 20
-1.306425951825454
 30
0.0
  0
VERTEX
  5
8CB
  8
STANDARD
 10
10.95681128184454
 20
-1.073158436101777
 30
0.0
  0
VERTEX
  5
8CC
  8
STANDARD
 10
10.88826639029055
 20
-0.8291176913128603
 30
0.0
  0
VERTEX
  5
8CD
  8
STANDARD
 10
10.83834416729575
 20
-0.574678664037189
 30
0.0
  0
VERTEX
  5
8CE
  8
STANDARD
 10
10.80803514243276
 20
-0.3102163008532479
 30
0.0
  0
VERTEX
  5
8CF
  8
STANDARD
 10
10.7983298452742
 20
-0.0361055483395217
 30
0.0
  0
VERTEX
  5
8D0
  8
STANDARD
 10
10.80985722061001
 20
0.2379341322679367
 30
0.0
  0
VERTEX
  5
8D1
  8
STANDARD
 10
10.84192371834247
 20
0.5021878227802923
 30
0.0
  0
VERTEX
  5
8D2
  8
STANDARD
 10
10.8935363384803
 20
0.7562872106421481
 30
0.0
  0
VERTEX
  5
8D3
  8
STANDARD
 10
10.96370208103222
 20
0.999863983298108
 30
0.0
  0
VERTEX
  5
8D4
  8
STANDARD
 10
11.05142794600696
 20
1.232549828192775
 30
0.0
  0
VERTEX
  5
8D5
  8
STANDARD
 10
11.15572093341322
 20
1.453976432770753
 30
0.0
  0
VERTEX
  5
8D6
  8
STANDARD
 10
11.27558804325975
 20
1.663775484476646
 30
0.0
  0
VERTEX
  5
8D7
  8
STANDARD
 10
11.41003627555524
 20
1.861578670755056
 30
0.0
  0
VERTEX
  5
8D8
  8
STANDARD
 10
11.55807263030842
 20
2.047017679050588
 30
0.0
  0
VERTEX
  5
8D9
  8
STANDARD
 10
11.71870410752803
 20
2.219724196807844
 30
0.0
  0
VERTEX
  5
8DA
  8
STANDARD
 10
11.89093770722276
 20
2.379329911471428
 30
0.0
  0
VERTEX
  5
8DB
  8
STANDARD
 10
12.07378042940136
 20
2.525466510485944
 30
0.0
  0
VERTEX
  5
8DC
  8
STANDARD
 10
12.26623927407254
 20
2.657765681295995
 30
0.0
  0
VERTEX
  5
8DD
  8
STANDARD
 10
12.46732124124501
 20
2.775859111346184
 30
0.0
  0
VERTEX
  5
8DE
  8
STANDARD
 10
12.6760333309275
 20
2.879378488081116
 30
0.0
  0
VERTEX
  5
8DF
  8
STANDARD
 10
12.89138254312873
 20
2.967955498945393
 30
0.0
  0
VERTEX
  5
8E0
  8
STANDARD
 10
13.11237587785742
 20
3.041221831383619
 30
0.0
  0
VERTEX
  5
8E1
  8
STANDARD
 10
13.33802033512229
 20
3.098809172840398
 30
0.0
  0
VERTEX
  5
8E2
  8
STANDARD
 10
13.56732291493206
 20
3.140349210760332
 30
0.0
  0
VERTEX
  5
8E3
  8
STANDARD
 10
13.79929061729546
 20
3.165473632588026
 30
0.0
  0
VERTEX
  5
8E4
  8
STANDARD
 10
14.0329304422212
 20
3.173814125768082
 30
0.0
  0
VERTEX
  5
8E5
  8
STANDARD
 10
14.267249389718
 20
3.165002377745105
 30
0.0
  0
VERTEX
  5
8E6
  8
STANDARD
 10
14.50125445979459
 20
3.138670075963697
 30
0.0
  0
VERTEX
  5
8E7
  8
STANDARD
 10
14.73395265245968
 20
3.094448907868463
 30
0.0
  0
VERTEX
  5
8E8
  8
STANDARD
 10
14.964350967722
 20
3.031970560904005
 30
0.0
  0
VERTEX
  5
8E9
  8
STANDARD
 10
15.19145640559027
 20
2.950866722514927
 30
0.0
  0
VERTEX
  5
8EA
  8
STANDARD
 10
15.4142759660732
 20
2.850769080145833
 30
0.0
  0
VERTEX
  5
8EB
  8
STANDARD
 10
15.63181664917952
 20
2.731309321241326
 30
0.0
  0
VERTEX
  5
8EC
  8
STANDARD
 10
15.84308545491795
 20
2.592119133246008
 30
0.0
  0
VERTEX
  5
8ED
  8
STANDARD
 10
16.04708938329722
 20
2.432830203604486
 30
0.0
  0
VERTEX
  5
8EE
  8
STANDARD
 10
16.24283543432603
 20
2.25307421976136
 30
0.0
  0
VERTEX
  5
8EF
  8
STANDARD
 10
16.42933060801311
 20
2.052482869161235
 30
0.0
  0
VERTEX
  5
8F0
  8
STANDARD
 10
16.36818832774998
 20
2.503762631225228
 30
0.0
  0
VERTEX
  5
8F1
  8
STANDARD
 10
16.29780670851187
 20
2.947935625545151
 30
0.0
  0
VERTEX
  5
8F2
  8
STANDARD
 10
16.21833240647121
 20
3.38500185211867
 30
0.0
  0
VERTEX
  5
8F3
  8
STANDARD
 10
16.12991207780041
 20
3.814961310943449
 30
0.0
  0
VERTEX
  5
8F4
  8
STANDARD
 10
16.0326923786719
 20
4.237814002017153
 30
0.0
  0
VERTEX
  5
8F5
  8
STANDARD
 10
15.92681996525811
 20
4.653559925337446
 30
0.0
  0
VERTEX
  5
8F6
  8
STANDARD
 10
15.81244149373144
 20
5.062199080901996
 30
0.0
  0
VERTEX
  5
8F7
  8
STANDARD
 10
15.68970362026432
 20
5.463731468708463
 30
0.0
  0
VERTEX
  5
8F8
  8
STANDARD
 10
15.55875300102918
 20
5.858157088754515
 30
0.0
  0
VERTEX
  5
8F9
  8
STANDARD
 10
15.41973629219843
 20
6.245475941037816
 30
0.0
  0
VERTEX
  5
8FA
  8
STANDARD
 10
15.27280014994448
 20
6.62568802555603
 30
0.0
  0
VERTEX
  5
8FB
  8
STANDARD
 10
15.11809123043977
 20
6.998793342306823
 30
0.0
  0
VERTEX
  5
8FC
  8
STANDARD
 10
14.95575618985672
 20
7.364791891287859
 30
0.0
  0
VERTEX
  5
8FD
  8
STANDARD
 10
14.78594168436774
 20
7.723683672496804
 30
0.0
  0
VERTEX
  5
8FE
  8
STANDARD
 10
14.60879437014525
 20
8.075468685931323
 30
0.0
  0
VERTEX
  5
8FF
  8
STANDARD
 10
14.42446090336168
 20
8.420146931589077
 30
0.0
  0
VERTEX
  5
900
  8
STANDARD
 10
14.23308794018945
 20
8.757718409467735
 30
0.0
  0
VERTEX
  5
901
  8
STANDARD
 10
14.03482213680097
 20
9.08818311956496
 30
0.0
  0
VERTEX
  5
902
  8
STANDARD
 10
13.82981014936868
 20
9.411541061878415
 30
0.0
  0
VERTEX
  5
903
  8
STANDARD
 10
13.61819863406498
 20
9.727792236405769
 30
0.0
  0
VERTEX
  5
904
  8
STANDARD
 10
13.4001342470623
 20
10.03693664314468
 30
0.0
  0
VERTEX
  5
905
  8
STANDARD
 10
13.17576364453306
 20
10.33897428209283
 30
0.0
  0
VERTEX
  5
906
  8
STANDARD
 10
12.94523348264968
 20
10.63390515324786
 30
0.0
  0
VERTEX
  5
907
  8
STANDARD
 10
12.70869041758459
 20
10.92172925660745
 30
0.0
  0
VERTEX
  5
908
  8
STANDARD
 10
12.46628110551019
 20
11.20244659216926
 30
0.0
  0
VERTEX
  5
909
  8
STANDARD
 10
12.21815220259892
 20
11.47605715993095
 30
0.0
  0
VERTEX
  5
90A
  8
STANDARD
 10
11.9644503650232
 20
11.7425609598902
 30
0.0
  0
VERTEX
  5
90B
  8
STANDARD
 10
11.70532224895543
 20
12.00195799204466
 30
0.0
  0
VERTEX
  5
90C
  8
STANDARD
 10
11.44091451056806
 20
12.254248256392
 30
0.0
  0
VERTEX
  5
90D
  8
STANDARD
 10
11.17137380603349
 20
12.49943175292988
 30
0.0
  0
VERTEX
  5
90E
  8
STANDARD
 10
10.89684679152414
 20
12.73750848165598
 30
0.0
  0
VERTEX
  5
90F
  8
STANDARD
 10
10.61748012321245
 20
12.96847844256795
 30
0.0
  0
VERTEX
  5
910
  8
STANDARD
 10
10.33342045727082
 20
13.19234163566345
 30
0.0
  0
VERTEX
  5
911
  8
STANDARD
 10
10.04481444987168
 20
13.40909806094017
 30
0.0
  0
VERTEX
  5
912
  8
STANDARD
 10
9.751808757187447
 20
13.61874771839575
 30
0.0
  0
VERTEX
  5
913
  8
STANDARD
 10
9.454550035390547
 20
13.82129060802786
 30
0.0
  0
VERTEX
  5
914
  8
STANDARD
 10
9.153184940653396
 20
14.01672672983417
 30
0.0
  0
VERTEX
  5
915
  8
STANDARD
 10
8.847860129148419
 20
14.20505608381235
 30
0.0
  0
VERTEX
  5
916
  8
STANDARD
 10
8.538722257048033
 20
14.38627866996005
 30
0.0
  0
VERTEX
  5
917
  8
STANDARD
 10
8.225917980524661
 20
14.56039448827494
 30
0.0
  0
VERTEX
  5
918
  8
STANDARD
 10
7.909593955750723
 20
14.7274035387547
 30
0.0
  0
VERTEX
  5
919
  8
STANDARD
 10
7.589896838898639
 20
14.88730582139697
 30
0.0
  0
VERTEX
  5
91A
  8
STANDARD
 10
7.26697328614083
 20
15.04010133619943
 30
0.0
  0
VERTEX
  5
91B
  8
STANDARD
 10
6.940969953649718
 20
15.18579008315975
 30
0.0
  0
VERTEX
  5
91C
  8
STANDARD
 10
6.612033497597722
 20
15.32437206227558
 30
0.0
  0
VERTEX
  5
91D
  8
STANDARD
 10
6.280310574157263
 20
15.45584727354459
 30
0.0
  0
VERTEX
  5
91E
  8
STANDARD
 10
5.945947839500763
 20
15.58021571696445
 30
0.0
  0
VERTEX
  5
91F
  8
STANDARD
 10
5.609091949800642
 20
15.69747739253281
 30
0.0
  0
VERTEX
  5
920
  8
STANDARD
 10
4.928487329959219
 20
15.91068044010574
 30
0.0
  0
VERTEX
  5
921
  8
STANDARD
 10
4.239669964012359
 20
16.09545641624469
 30
0.0
  0
VERTEX
  5
922
  8
STANDARD
 10
3.543813101339429
 20
16.25180532093098
 30
0.0
  0
VERTEX
  5
923
  8
STANDARD
 10
2.842089991319794
 20
16.37972715414593
 30
0.0
  0
VERTEX
  5
924
  8
STANDARD
 10
2.13567388333282
 20
16.47922191587085
 30
0.0
  0
VERTEX
  5
925
  8
STANDARD
 10
1.425738026757873
 20
16.55028960608706
 30
0.0
  0
VERTEX
  5
926
  8
STANDARD
 10
0.7134556709743193
 20
16.59293022477589
 30
0.0
  0
VERTEX
  5
927
  8
STANDARD
 10
0.0000000653615233
 20
16.60714377191865
 30
0.0
  0
VERTEX
  5
928
  8
STANDARD
 10
-0.7134555407011487
 20
16.59293024749666
 30
0.0
  0
VERTEX
  5
929
  8
STANDARD
 10
-1.425737897834331
 20
16.55028965149123
 30
0.0
  0
VERTEX
  5
92A
  8
STANDARD
 10
-2.135673756658658
 20
16.47922198388369
 30
0.0
  0
VERTEX
  5
92B
  8
STANDARD
 10
-2.842089867794764
 20
16.37972724465536
 30
0.0
  0
VERTEX
  5
92C
  8
STANDARD
 10
-3.543812981863284
 20
16.25180543378755
 30
0.0
  0
VERTEX
  5
92D
  8
STANDARD
 10
-4.23966984948485
 20
16.09545655126158
 30
0.0
  0
VERTEX
  5
92E
  8
STANDARD
 10
-4.928487221280098
 20
15.91068059705876
 30
0.0
  0
VERTEX
  5
92F
  8
STANDARD
 10
-5.609091847869663
 20
15.69747757116043
 30
0.0
  0
VERTEX
  5
930
  8
STANDARD
 10
-5.945947741281262
 20
15.5802159063196
 30
0.0
  0
VERTEX
  5
931
  8
STANDARD
 10
-6.280310479874178
 20
15.45584747354789
 30
0.0
  0
VERTEX
  5
932
  8
STANDARD
 10
-6.612033407475989
 20
15.32437227284295
 30
0.0
  0
VERTEX
  5
933
  8
STANDARD
 10
-6.940969867914276
 20
15.18579030420246
 30
0.0
  0
VERTEX
  5
934
  8
STANDARD
 10
-7.266973205016619
 20
15.04010156762408
 30
0.0
  0
VERTEX
  5
935
  8
STANDARD
 10
-7.589896762610596
 20
14.88730606310546
 30
0.0
  0
VERTEX
  5
936
  8
STANDARD
 10
-7.909593884523785
 20
14.72740379064429
 30
0.0
  0
VERTEX
  5
937
  8
STANDARD
 10
-8.225917914583768
 20
14.56039475023822
 30
0.0
  0
VERTEX
  5
938
  8
STANDARD
 10
-8.538722196618123
 20
14.38627894188492
 30
0.0
  0
VERTEX
  5
939
  8
STANDARD
 10
-8.847860074454427
 20
14.20505636558205
 30
0.0
  0
VERTEX
  5
93A
  8
STANDARD
 10
-9.153184891920262
 20
14.01672702132727
 30
0.0
  0
VERTEX
  5
93B
  8
STANDARD
 10
-9.454549992843207
 20
13.82129090911826
 30
0.0
  0
VERTEX
  5
93C
  8
STANDARD
 10
-9.751808721050843
 20
13.61874802895267
 30
0.0
  0
VERTEX
  5
93D
  8
STANDARD
 10
-10.04481442037075
 20
13.40909838082817
 30
0.0
  0
VERTEX
  5
93E
  8
STANDARD
 10
-10.33342043463049
 20
13.19234196474243
 30
0.0
  0
VERTEX
  5
93F
  8
STANDARD
 10
-10.61748010765767
 20
12.96847878069311
 30
0.0
  0
VERTEX
  5
940
  8
STANDARD
 10
-10.89684678327985
 20
12.73750882867788
 30
0.0
  0
VERTEX
  5
941
  8
STANDARD
 10
-11.17137380532462
 20
12.49943210869439
 30
0.0
  0
VERTEX
  5
942
  8
STANDARD
 10
-11.44091451761955
 20
12.25424862074032
 30
0.0
  0
VERTEX
  5
943
  8
STANDARD
 10
-11.70532226399223
 20
12.00195836481334
 30
0.0
  0
VERTEX
  5
944
  8
STANDARD
 10
-11.96445038827023
 20
11.74256134091109
 30
0.0
  0
VERTEX
  5
945
  8
STANDARD
 10
-12.21815223428113
 20
11.47605754903126
 30
0.0
  0
VERTEX
  5
946
  8
STANDARD
 10
-12.46628114585252
 20
11.2024469891715
 30
0.0
  0
VERTEX
  5
947
  8
STANDARD
 10
-12.70869046681197
 20
10.92172966132947
 30
0.0
  0
VERTEX
  5
948
  8
STANDARD
 10
-12.94523354098705
 20
10.63390556550285
 30
0.0
  0
VERTEX
  5
949
  8
STANDARD
 10
-13.17576371220536
 20
10.3389747016893
 30
0.0
  0
VERTEX
  5
94A
  8
STANDARD
 10
-13.40013432429446
 20
10.03693706988649
 30
0.0
  0
VERTEX
  5
94B
  8
STANDARD
 10
-13.61819872108195
 20
9.727792670092072
 30
0.0
  0
VERTEX
  5
94C
  8
STANDARD
 10
-13.82981024639539
 20
9.411541502303717
 30
0.0
  0
VERTEX
  5
94D
  8
STANDARD
 10
-14.03482224406236
 20
9.088183566519088
 30
0.0
  0
VERTEX
  5
94E
  8
STANDARD
 10
-14.23308805791046
 20
8.757718862735853
 30
0.0
  0
VERTEX
  5
94F
  8
STANDARD
 10
-14.42446103176725
 20
8.420147390951675
 30
0.0
  0
VERTEX
  5
950
  8
STANDARD
 10
-14.60879450946031
 20
8.075469151164219
 30
0.0
  0
VERTEX
  5
951
  8
STANDARD
 10
-14.78594183481723
 20
7.72368414337115
 30
0.0
  0
VERTEX
  5
952
  8
STANDARD
 10
-14.95575635166558
 20
7.364792367570132
 30
0.0
  0
VERTEX
  5
953
  8
STANDARD
 10
-15.11809140383295
 20
6.998793823758831
 30
0.0
  0
VERTEX
  5
954
  8
STANDARD
 10
-15.2728003351469
 20
6.625688511934912
 30
0.0
  0
VERTEX
  5
955
  8
STANDARD
 10
-15.41973648943503
 20
6.245476432096038
 30
0.0
  0
VERTEX
  5
956
  8
STANDARD
 10
-15.55875321052491
 20
5.858157584239875
 30
0.0
  0
VERTEX
  5
957
  8
STANDARD
 10
-15.68970384224411
 20
5.463731968364089
 30
0.0
  0
VERTEX
  5
958
  8
STANDARD
 10
-15.81244172842023
 20
5.062199584466342
 30
0.0
  0
VERTEX
  5
959
  8
STANDARD
 10
-15.92682021288083
 20
4.6535604325443
 30
0.0
  0
VERTEX
  5
95A
  8
STANDARD
 10
-16.0326926394535
 20
4.237814512595627
 30
0.0
  0
VERTEX
  5
95B
  8
STANDARD
 10
-16.12991235196582
 20
3.81496182461799
 30
0.0
  0
VERTEX
  5
95C
  8
STANDARD
 10
-16.21833269424536
 20
3.385002368609052
 30
0.0
  0
VERTEX
  5
95D
  8
STANDARD
 10
-16.29780701011972
 20
2.947936144566479
 30
0.0
  0
VERTEX
  5
95E
  8
STANDARD
 10
-16.36818864341645
 20
2.503763152487934
 30
0.0
  0
VERTEX
  5
95F
  8
STANDARD
 10
-16.42933093796315
 20
2.052483392371084
 30
0.0
  0
VERTEX
  5
960
  8
STANDARD
 10
-16.24283577529772
 20
2.253074793492182
 30
0.0
  0
VERTEX
  5
961
  8
STANDARD
 10
-16.04708973113041
 20
2.43283082462326
 30
0.0
  0
VERTEX
  5
962
  8
STANDARD
 10
-15.84308580573141
 20
2.592119798362235
 30
0.0
  0
VERTEX
  5
963
  8
STANDARD
 10
-15.63181699937086
 20
2.731310027307025
 30
0.0
  0
VERTEX
  5
964
  8
STANDARD
 10
-15.41427631231893
 20
2.850769824055549
 30
0.0
  0
VERTEX
  5
965
  8
STANDARD
 10
-15.19145674484579
 20
2.950867501205723
 30
0.0
  0
VERTEX
  5
966
  8
STANDARD
 10
-14.96435129722161
 20
3.031971371355467
 30
0.0
  0
VERTEX
  5
967
  8
STANDARD
 10
-14.73395296971654
 20
3.094449747102697
 30
0.0
  0
VERTEX
  5
968
  8
STANDARD
 10
-14.50125476260076
 20
3.138670941045333
 30
0.0
  0
VERTEX
  5
969
  8
STANDARD
 10
-14.26724967614443
 20
3.165003265781289
 30
0.0
  0
VERTEX
  5
96A
  8
STANDARD
 10
-14.03293071061771
 20
3.173815033908487
 30
0.0
  0
VERTEX
  5
96B
  8
STANDARD
 10
-13.79929086629077
 20
3.165474558024841
 30
0.0
  0
VERTEX
  5
96C
  8
STANDARD
 10
-13.56732314343377
 20
3.140350150728271
 30
0.0
  0
VERTEX
  5
96D
  8
STANDARD
 10
-13.33802054231688
 20
3.098810124616696
 30
0.0
  0
VERTEX
  5
96E
  8
STANDARD
 10
-13.11237606321026
 20
3.041222792288032
 30
0.0
  0
VERTEX
  5
96F
  8
STANDARD
 10
-12.89138270638408
 20
2.967956466340197
 30
0.0
  0
VERTEX
  5
970
  8
STANDARD
 10
-12.6760334721085
 20
2.879379459371108
 30
0.0
  0
VERTEX
  5
971
  8
STANDARD
 10
-12.46732136065368
 20
2.775860083978685
 30
0.0
  0
VERTEX
  5
972
  8
STANDARD
 10
-12.2662393722898
 20
2.657766652760845
 30
0.0
  0
VERTEX
  5
973
  8
STANDARD
 10
-12.07378050728702
 20
2.525467478315504
 30
0.0
  0
VERTEX
  5
974
  8
STANDARD
 10
-11.8909377659155
 20
2.379330873240582
 30
0.0
  0
VERTEX
  5
975
  8
STANDARD
 10
-11.7187041484454
 20
2.219725150133995
 30
0.0
  0
VERTEX
  5
976
  8
STANDARD
 10
-11.55807265514689
 20
2.047018621593663
 30
0.0
  0
VERTEX
  5
977
  8
STANDARD
 10
-11.41003628629014
 20
1.861579600217502
 30
0.0
  0
VERTEX
  5
978
  8
STANDARD
 10
-11.27558804214531
 20
1.663776398603431
 30
0.0
  0
VERTEX
  5
979
  8
STANDARD
 10
-11.15572092298257
 20
1.453977329349367
 30
0.0
  0
VERTEX
  5
97A
  8
STANDARD
 10
-11.05142792907207
 20
1.232550705053228
 30
0.0
  0
VERTEX
  5
97B
  8
STANDARD
 10
-10.96370206068399
 20
0.9998648383129323
 30
0.0
  0
VERTEX
  5
97C
  8
STANDARD
 10
-10.89353631808849
 20
0.756288041726397
 30
0.0
  0
VERTEX
  5
97D
  8
STANDARD
 10
-10.84192370155574
 20
0.5021886278915403
 30
0.0
  0
VERTEX
  5
97E
  8
STANDARD
 10
-10.80985721135589
 20
0.2379349094062799
 30
0.0
  0
VERTEX
  5
97F
  8
STANDARD
 10
-10.79832984775912
 20
-0.0361048011314663
 30
0.0
  0
VERTEX
  5
980
  8
STANDARD
 10
-10.80803507623617
 20
-0.3102155883832828
 30
0.0
  0
VERTEX
  5
981
  8
STANDARD
 10
-10.83834403885299
 20
-0.5746779885744788
 30
0.0
  0
VERTEX
  5
982
  8
STANDARD
 10
-10.88826620582579
 20
-0.8291170548715884
 30
0.0
  0
VERTEX
  5
983
  8
STANDARD
 10
-10.95681104737077
 20
-1.073157840441146
 30
0.0
  0
VERTEX
  5
984
  8
STANDARD
 10
-11.04298803370412
 20
-1.306425398449685
 30
0.0
  0
VERTEX
  5
985
  8
STANDARD
 10
-11.14580663504204
 20
-1.528544782063741
 30
0.0
  0
VERTEX
  5
986
  8
STANDARD
 10
-11.26427632160075
 20
-1.739141044449847
 30
0.0
  0
VERTEX
  5
987
  8
STANDARD
 10
-11.39740656359644
 20
-1.937839238774537
 30
0.0
  0
VERTEX
  5
988
  8
STANDARD
 10
-11.54420683124531
 20
-2.124264418204346
 30
0.0
  0
VERTEX
  5
989
  8
STANDARD
 10
-11.70368659476357
 20
-2.298041635905808
 30
0.0
  0
VERTEX
  5
98A
  8
STANDARD
 10
-11.87485532436741
 20
-2.458795945045456
 30
0.0
  0
VERTEX
  5
98B
  8
STANDARD
 10
-12.05672249027304
 20
-2.606152398789826
 30
0.0
  0
VERTEX
  5
98C
  8
STANDARD
 10
-12.24829756269666
 20
-2.739736050305451
 30
0.0
  0
VERTEX
  5
98D
  8
STANDARD
 10
-12.44859001185448
 20
-2.859171952758865
 30
0.0
  0
VERTEX
  5
98E
  8
STANDARD
 10
-12.65660930796268
 20
-2.964085159316603
 30
0.0
  0
VERTEX
  5
98F
  8
STANDARD
 10
-12.87136492123749
 20
-3.054100723145199
 30
0.0
  0
VERTEX
  5
990
  8
STANDARD
 10
-13.09186632189508
 20
-3.128843697411187
 30
0.0
  0
VERTEX
  5
991
  8
STANDARD
 10
-13.31712298015168
 20
-3.187939135281101
 30
0.0
  0
VERTEX
  5
992
  8
STANDARD
 10
-13.54614436622348
 20
-3.231012089921475
 30
0.0
  0
VERTEX
  5
993
  8
STANDARD
 10
-13.77793995032668
 20
-3.257687614498843
 30
0.0
  0
VERTEX
  5
994
  8
STANDARD
 10
-14.01151920267749
 20
-3.26759076217974
 30
0.0
  0
VERTEX
  5
995
  8
STANDARD
 10
-14.2458915934921
 20
-3.2603465861307
 30
0.0
  0
VERTEX
  5
996
  8
STANDARD
 10
-14.48006659298671
 20
-3.235580139518256
 30
0.0
  0
VERTEX
  5
997
  8
STANDARD
 10
-14.71305367137754
 20
-3.192916475508944
 30
0.0
  0
VERTEX
  5
998
  8
STANDARD
 10
-14.94386229888078
 20
-3.131980647269297
 30
0.0
  0
VERTEX
  5
999
  8
STANDARD
 10
-15.17150194571262
 20
-3.052397707965849
 30
0.0
  0
VERTEX
  5
99A
  8
STANDARD
 10
-15.39498208208929
 20
-2.953792710765135
 30
0.0
  0
VERTEX
  5
99B
  8
STANDARD
 10
-15.61331217822697
 20
-2.835790708833688
 30
0.0
  0
VERTEX
  5
99C
  8
STANDARD
 10
-15.82550170434186
 20
-2.698016755338043
 30
0.0
  0
VERTEX
  5
99D
  8
STANDARD
 10
-16.03056013065017
 20
-2.540095903444735
 30
0.0
  0
VERTEX
  5
99E
  8
STANDARD
 10
-16.22749692736811
 20
-2.361653206320296
 30
0.0
  0
SEQEND
  5
99F
  8
STANDARD
  0
ENDSEC
  0
EOF
